12 Cents Chords & Lyrics Artist:

Chords (click graphic to learn to play)

C chord D chord Em chord G chord Dsus2 chord
20% Off Guitar Tricks Full Access! when you use this link

How To Play

Tune your guitar at E flat
 
Usa una guitarra de 12 cuerdas para este tema.
Use a 12 strings guitar for this song.
 
 
 INTRO
e|-0-----2^0-----------5--|-0-----2^0--------------0----|
B|---0-------0-------3----|---0-------0-------3---------|
G|-----0-------0----------|-----0-------0---2----2------|
D|---------------/5-------|---------------0-------------|
A|------------------------|-----------------------------|
E|------------------------|-----------------------------|
 
[Verse I]
Em        G
Watching, waiting
Em                              Dsus2  D
You know it shouldn't take this long
Em       G
Leaning, forward
Em                          Dsus2          D
I know it couldn't possibly take much longer
 
CHORUS
   Em       Dsus2     Em       D
I know the pain moves on
      Em        Dsus2           Em       D
And i feel the same for the wrong
 
[Verse II]
Em      G
Angels, walking,
Em        Dsus2  D
floating on and on
Em         G
Breathing, eloquent
Em                          Dsus2        D
I know it couldn't possibly wait much longer
 
CHORUS
   Em       Dsus2     Em       D
I know the pain moves on
      Em        Dsus2           Em       D
And i feel the same for the wrong
 
 
BRIDGE
Em G Em Dsus2 D x2
Em D
Em D
C
 
 INTRO
e|-0-----2^0-----------5--|-0-----2^0--------------0----|
B|---0-------0-------3----|---0-------0-------3---------|
G|-----0-------0----------|-----0-------0---2----2------|
D|---------------/5-------|---------------0-------------|
A|------------------------|-----------------------------|
E|------------------------|-----------------------------|
 
[Verse III]
Em         G
Searching, so long
  Em                Dsus2   D
I know we'll find a way
 Em       G
Reaching all alone
  Em                           Dsus2        D
I know they couldn't possibly hate much longer
 
CHORUS
   Em       Dsus2     Em       D
I know the pain moves on
      Em        Dsus2           Em       D
And i feel the same for the wrong
 
 
 
************************************
 
| /  Slide up
 
************************************

SEE ALSO: Our List Of Guitar Apps That Don't Suck

Latest Downloads That'll help you become a better guitarist

Your First Six Guitar Songs Cover Download Now
guitar fretboard notes print quality Download Now
Blank Guitar Chord Charts print quality Download Now
Guitar Chord Chart Download Now

Nailed It?

Great job! Let others know you're learning REAL music by sharing on social media!

Save This Song!

Enjoying 12 Cents by Ugly Kid Joe? Bookmark the page to make it easier for you to find again!

Press Ctrl+D to bookmark this page

Ugly Kid Joe Fan?

We hope you enjoyed learning how to play 12 Cents by Ugly Kid Joe on guitar. Don't stop now! There's loads more songs to learn by at Guvna Guitars!

Comments If you liked this tab or have something to share that'll make playing 12 Cents better for others, let us all know in the comments below!

Your email address will not be published. Required fields are marked *

Submit Chords

Have a song you know the chords for that you'd like to share with others? Awesome! Submit it by clicking on the button below