All Good Naysayers Speak Up Or Forever Hold Your Peace Chords & Lyrics Artist:

Chords (click graphic to learn to play)

C chord D chord F chord Cmaj7 chord
20% Off Guitar Tricks Full Access! when you use this link

How To Play

[Intro - Main Pattern]
     F                 Cmaj7  C        F                 Cmaj7
e|----------------------------------|----------------------------------|
B|------------1-----------0---1-----|-----------1----------0-----------|
G|------------2-------2---0---0-----|-----------2------2---0---0-------|
D|--------3-----------3-------------|-------3----------3-------2-------|
A|----3-------------------3---3-----|---3------------------3-----------|
E|----------------------------------|----------------------------------|
 
 
VERSE 1
  F
"All
Cmaj7     F
  good thoughts"
Cmaj7   F
  in  spite
Cmaj7  F    Cmaj7
  of righteousness is
 F  Cmaj7      F
Not       the kind
Cmaj7    F     Cmaj7      F        Cmaj7
    of thoughts      in spite of greatness.
  F  Cmaj7   F  Cmaj7     F  Cmaj7    F   Cmaj7
Often       now     the State     is advocation.
F  Cmaj7  F   Cmaj7  F   Cmaj7   F   Cmaj7
If    we form     a power   of recognition.
 
[Interlude - Main Pattern]
     F                 Cmaj7  C        F                 Cmaj7
e|----------------------------------|----------------------------------|
B|------------1-----------0---1-----|-----------1----------0-----------|
G|------------2-------2---0---0-----|-----------2------2---0---0-------|
D|--------3-----------3-------------|-------3----------3-------2-------|  X8
A|----3-------------------3---3-----|---3------------------3-----------|
E|----------------------------------|----------------------------------|
 
VERSE 2
  F   Cmaj7  F  Cmaj7    F     Cmaj7  F  Cmaj7
Forget      loss    and perfect      advocation.
F  Cmaj7   F   Cmaj7    F   Cmaj7   F   Cmaj7
If     it drops    or stays     in convocation.
 
CHORUS
F   Cmaj7  F    Cmaj7  F  Cmaj7  F       Cmaj7
All  we  praise  is   all  we   want in commerce
F  Cmaj7   F    Cmaj7  F   Cmaj7  F    Cmaj7
All  we  praise  is  parties, foreign commerce.
F Cmaj7 F   Cmaj7 F Cmaj7   F     Cmaj7
Entertain    ideas   of   great communion,
F  Camj7   F  Cmaj7  F  Cmaj7  F
Shelter   not materials  in   union
 
[Interlude - Main Pattern]
     F                 Cmaj7  C        F                 Cmaj7
e|----------------------------------|----------------------------------|
B|------------1-----------0---1-----|-----------1----------0-----------|
G|------------2-------2---0---0-----|-----------2------2---0---0-------|
D|--------3-----------3-------------|-------3----------3-------2-------|  X18
A|----3-------------------3---3-----|---3------------------3-----------|
E|----------------------------------|----------------------------------|
 
VERSE 3
  F
"All
Cmaj7      F
   good thoughts"
Cmaj7  F  Cmaj7     F     Cmaj7
   is not      the act of doing
 F  Cmaj7   F  Cmaj7    F   Cmaj7    F        Cmaj7
What    we want    but what     we should be proving
 F  Cmaj7 F  Cmaj7   F   Cmaj7   F      Cmaj7
(Properties?),     ideas, a    woman's pleasure
F   Cmaj7 F  Cmaj7   F   Cmaj7    F      Cmaj7
is empowered     by love,     a perfect measure!
 
 
[Interlude - Main Pattern]
     F                 Cmaj7  C        F                 Cmaj7
e|----------------------------------|----------------------------------|
B|------------1-----------0---1-----|-----------1----------0-----------|
G|------------2-------2---0---0-----|-----------2------2---0---0-------|
D|--------3-----------3-------------|-------3----------3-------2-------|  X16
A|----3-------------------3---3-----|---3------------------3-----------|
E|----------------------------------|----------------------------------|
 
     F                 Cmaj7  C        F                 Cmaj7              D
e|----------------------------------|----------------------------------|----2-----|
B|------------1-----------0---1-----|-----------1----------0-----------|----3-----|
G|------------2-------2---0---0-----|-----------2------2---0---0-------|----2-----|
D|--------3-----------3-------------|-------3----------3-------2-------|----0-----|  X1
A|----3-------------------3---3-----|---3------------------3-----------|----------|
E|----------------------------------|----------------------------------|----------|

SEE ALSO: Our List Of Guitar Apps That Don't Suck

Latest Downloads That'll help you become a better guitarist

Your First Six Guitar Songs Cover Download Now
guitar fretboard notes print quality Download Now
Blank Guitar Chord Charts print quality Download Now
Guitar Chord Chart Download Now

Nailed It?

Great job! Let others know you're learning REAL music by sharing on social media!

Save This Song!

Enjoying All Good Naysayers Speak Up Or Forever Hold Your Peace by Sufjan Stevens? Bookmark the page to make it easier for you to find again!

Press Ctrl+D to bookmark this page

Sufjan Stevens Fan?

We hope you enjoyed learning how to play All Good Naysayers Speak Up Or Forever Hold Your Peace by Sufjan Stevens on guitar. Don't stop now! There's loads more songs to learn by at Guvna Guitars!

Comments If you liked this tab or have something to share that'll make playing All Good Naysayers Speak Up Or Forever Hold Your Peace better for others, let us all know in the comments below!

Your email address will not be published. Required fields are marked *

Submit Chords

Have a song you know the chords for that you'd like to share with others? Awesome! Submit it by clicking on the button below