All Is Said And Done Chords & Lyrics Artist:

Chords (click graphic to learn to play)

Am7 chord C chord Em chord F chord Cadd9 chord C/F chord A7sus4 chord Cmaj7/G chord Fsus2/G chord
20% Off Guitar Tricks Full Access! when you use this link

How To Play

Capo: 1st fret
- all notes and chords are relative to the capo
 
Intro / Verse
 
Basically just back and forth played fast on the bottom two strings. Listen to the song
for the rhythm.
 
E-|-0---------0----0----0---------0----0----0-------|
B-|------3-------------------3-------------------3--|
G-|-------------------------------------------------|
D-|-------------------------------------------------|
A-|-------------------------------------------------|
E-|-------------------------------------------------|
 
I need you to hear me,
I want you to feel this,
It should be clear as fear and plain as day.
 
I'm not going to bend now,
You're not going to break me,
You'll never be hard enough to scratch my face.
 
CHORD PROGRESSION (x2):
 
    Em  C/F  C  Gadd4  Fsus2/G  Cmaj7/G   F
 
E-|-000--0---0----3------3-------3-3------1--|
B-|-000--1---1----3------6-------5-5------1--|
G-|-000--0---0----4------5-------4-4------2--|
D-|-222--3---2----5------3-------5-5------3--|
A-|-222--3---3----3------3-------3-3------3--|
E-|-000--1---x----3------3-------3-3------1--|
 
 
I wanted to feel you,
I tried to belong here,
With all of the ghosts and faded headlines.
But I couldn't read you,
You wouldn't let me,
You always pull away from the ones you can't define.
 
 
CHORD PROGRESSION (x1):
 
    Em  C/F  C  Gadd4  Fsus2/G  Cmaj7/G  F
 
E-|-000--0---0----3------3-------3-3------1--|
B-|-000--1---1----3------6-------5-5------1--|
G-|-000--0---0----4------5-------4-4------2--|
D-|-222--3---2----5------3-------5-5------3--|
A-|-222--3---3----3------3-------3-3------3--|
E-|-000--1---x----3------3-------3-3------1--|
 
CHORUS
 
    Cadd9  A7sus4  Am7   Cadd4
 
E-|---0------0------0------0--|
B-|---3------3------1------1--|
G-|---0------0------0------0--|
D-|---2------2------2------3--|
A-|---3------0------0------3--|
E-|---x------x------x------x--|
 
 
        Cadd9                  A7sus4
Are you tired of holding up the sky?
 
                     Am7
Of teaching birds to fly?
 
                       Cadd4
You've done it all your life.
 
               Cadd9                 A7sus4
Oh baby are you sad, when you see the sun?
 
                          Am7
'Cause then your not the brightest one,
 
                     Cadd4
When all is said and done,
Yeah honey, all is said and done.
 
REPEAT INTRO/VERSE
 
I need to move through this,
The waiting just kills me.
Whatever you do is on you, I'm washed clean.
No, don't be alarmed now the story's ending,
These aren't open arms, they're just waving you away.
 
REPEAT CHORUS
 
Are you tired of holding up the sky?
Of teaching birds to fly?
You've done it all your life.
 
Oh baby are you sad, when you see the sun?
You've never been the brightest one,
When all is said and done,
Yeah honey, all is said and done.
All is said and done.

SEE ALSO: Our List Of Guitar Apps That Don't Suck

Latest Downloads That'll help you become a better guitarist

Your First Six Guitar Songs Cover Download Now
guitar fretboard notes print quality Download Now
Blank Guitar Chord Charts print quality Download Now
Guitar Chord Chart Download Now

Nailed It?

Great job! Let others know you're learning REAL music by sharing on social media!

Save This Song!

Enjoying All Is Said And Done by Vertical Horizon? Bookmark the page to make it easier for you to find again!

Press Ctrl+D to bookmark this page

Vertical Horizon Fan?

We hope you enjoyed learning how to play All Is Said And Done by Vertical Horizon on guitar. Don't stop now! There's loads more songs to learn by at Guvna Guitars!

Comments If you liked this tab or have something to share that'll make playing All Is Said And Done better for others, let us all know in the comments below!

Your email address will not be published. Required fields are marked *

Submit Chords

Have a song you know the chords for that you'd like to share with others? Awesome! Submit it by clicking on the button below