Another Day In Paradise Chords & Lyrics Artist:

Chords (click graphic to learn to play)

Em chord D chord Am7 chord Em7 chord D/E chord C/E chord C chord Am chord D/F# chord G chord
20% Off Guitar Tricks Full Access! when you use this link

How To Play

Capo:1st fret

[Melodie - Intro]
 
e|-3-----3-5---3---|-2-0-----0-------|-3-----3-5---3---|-2-0-------------|
B|-----------------|-----3-----------|-----------------|-----3---1-------|
G|-----------------|-----------------|-----------------|-----------------|
D|-----------------|-0---------------|-----------------|-0---------------|
A|-----------------|---------0-------|-----------------|---------0-------|
E|-0---------------|-----------------|-0---------------|-----------------| x2
 
Em    D  Am7  x4
 
 
VERSE 1
Em7                    D          Am7
  She calls out to the man on the street
Em7              D
   "Sir, can you help me?
Em7                   D          Am7
   It's cold and I've nowhere to sleep,
Em7                           D
   Is there somewhere you can tell me?"
Em7             D            Am7
   He walks on, doesn't look back
Em7                     D
   He pretends he can't hear her
Em7                        D           Am7
   Starts to whistle as he crosses the street
Em7                      D
    Seems embarrassed to be there
 
 
CHORUS
Em7       D/E                   C/E
Oh, think twice, 'cause it's an other day for
              D/E
You and me in paradise
Em7       D/E                   C/E
Oh, think twice, 'cause it's an other day for you,
D       Em    D  C
You and me in pa ra 
 
 
INSTRUMENTAL
 
e|-3-----3-5---3---|-2-0-----0-------|-3-----3-5---3---|-2-0-------------|
B|-----------------|-----3-----------|-----------------|-----3---1-------|
G|-----------------|-----------------|-----------------|-----------------|
D|-----------------|-0---------------|-----------------|-0---------------|
A|-----------------|---------0-------|-----------------|---------0-------|
E|-0---------------|-----------------|-0---------------|-----------------| x2
 
Em       D   Am
dise
Em       D   Am
               just think
Em       D   Am
about it
Em       D   Am
 
VERSE 2
Em7                     D          Am7
   She calls out to the man on the street
Em7                      D
   He can see she's been crying
Em7                          D            Am7
   She's got blisters on the soles of her feet
Em7                          D
    She can't walk but she's trying
 
 
CHORUS
Em7       D/E                   C/E
Oh, think twice, 'cause it's an other day for
              D/E
You and me in paradise
Em7       D/E                   C/E
Oh, think twice, 'cause it's an other day for you,
D       Em    D  C
You and me in pa ra 
 
 
INSTRUMENTAL
 
e|-3-----3-5---3---|-2-0-----0-------|-3-----3-5---3---|-2-0-------------|
B|-----------------|-----3-----------|-----------------|-----3---1-------|
G|-----------------|-----------------|-----------------|-----------------|
D|-----------------|-0---------------|-----------------|-0---------------|
A|-----------------|---------0-------|-----------------|---------0-------|
E|-0---------------|-----------------|-0---------------|-----------------| x2
 
Em       D   Am
dise
Em       D   Am
               just think
Em       D   Am
about it
Em       D   Am
BRIDGE
D/F#     Em             D                    G
      Oh lord, is there nothing more anybody   can do
D/F#     Em                  D                 G
Oh-oh oh lord, there must be something you can say
 
 
VERSE 3
Em7                      D            Am7
   You can tell from the lines on her face
Em7                       D
   You can see that she's been there
Em7                         D     Am7
Probably been moved on from every place
Em7                   D
   But she didn't fit in there
 
 
CHORUS
 
Em7       D/E                   C/E
Oh, think twice, 'cause it's an other day for
              D/E
You and me in paradise
Em7       D/E                   C/E
Oh, think twice, 'cause it's an other day for you,
D       Em    D  C
You and me in pa ra 
INSTRUMENTAL
 
e|-3-----3-5---3---|-2-0-----0-------|-3-----3-5---3---|-2-0-------------|
B|-----------------|-----3-----------|-----------------|-----3---1-------|
G|-----------------|-----------------|-----------------|-----------------|
D|-----------------|-0---------------|-----------------|-0---------------|
A|-----------------|---------0-------|-----------------|---------0-------|
E|-0---------------|-----------------|-0---------------|-----------------| x2
 
Em       D  Am
dise           just think
Em       D  Am
about it
Em       D  Am
Em       D  Am
 
repeat and fade

SEE ALSO: Our List Of Guitar Apps That Don't Suck

Latest Downloads That'll help you become a better guitarist

Your First Six Guitar Songs Cover Download Now
guitar fretboard notes print quality Download Now
Blank Guitar Chord Charts print quality Download Now
Guitar Chord Chart Download Now

Nailed It?

Great job! Let others know you're learning REAL music by sharing on social media!

Save This Song!

Enjoying Another Day In Paradise by Phil Collins? Bookmark the page to make it easier for you to find again!

Press Ctrl+D to bookmark this page

Phil Collins Fan?

We hope you enjoyed learning how to play Another Day In Paradise by Phil Collins on guitar. Don't stop now! There's loads more songs to learn by at Guvna Guitars!

Comments If you liked this tab or have something to share that'll make playing Another Day In Paradise better for others, let us all know in the comments below!

Your email address will not be published. Required fields are marked *

Submit Chords

Have a song you know the chords for that you'd like to share with others? Awesome! Submit it by clicking on the button below