Apple Blossom Chords & Lyrics Artist:

Chords (click graphic to learn to play)

Am chord Dm chord Em chord G chord B chord E chord
20% Off Guitar Tricks Full Access! when you use this link

How To Play

INTRO
 
Am  Em
 
 
VERSE 1
 
Am
Hey Little Apple Blossom
     Dm
What seems to be the problem
Am
All the ones you tell your troubles to
      Em           G       Am
They don't really care for you
 
 
Am
Come and tell me what you're thinking
       Dm
Cause just when the boat is sinking
Am
A little light is blinking
   Em              G       Am
And I will come and rescue you
 
 
CHORUS
 
Dm                   Am
Lots of girls walk around in tears
Em                 Am
But that's not for you
Dm                        Am
You've been looking all around for years
         B                            E  G
For someone to tell your troubles to
 
 
VERSE 2
 
Am
Come and sit with me and talk a while
Dm
Let me see your pretty little smile
Am
Put your troubles in a little pile
   Em                 G     Am
And I will sort them out for you
 
 
SOLO
 
e|-------------------------|-----------------------|
B|-------------------------|-----------------------|
G|-------------------------|-----------------------|
D|-------------------------|--5/7--7-5-------------|
A|---5/7--7-7-5------------|------------/8---7-5---|
E|---------------/8---7-5--|-----------------------|
     Am                       Dm
 
e|--------------------------------------------|
B|--------------------------------------------|
G|--------------------------------------------|
D|--------------------------------------------|
A|---0-7----0-5----0-3----0--3--5--3----------|
E|------------------------------------/7---5--|
     Am
 
e|----------------------------------|
B|----------------------------------|
G|----------------------------------|
D|----------------------------------|
A|----------------------------------|
E|---/7-7-7-7---8--8--7~~-0------3--|
 
 
CHORUS
 
Dm                   Am
Lots of girls walk around in tears
Em                 Am
But that's not for you
Dm                        Am
You've been looking all around for years
         B                            E  G
For someone to tell your troubles to
 
 
VERSE 3
 
Am
Come and sit with me and talk a while
Dm
Let me see your pretty little smile
Am
Put your troubles in a little pile
   Em                 G     Am
And I will sort them out for you
 
 
OUTRO
 
Em            G         Am
I'll fall in love with you
Em            G     Am
I think I'll marry you

SEE ALSO: Our List Of Guitar Apps That Don't Suck

Latest Downloads That'll help you become a better guitarist

Your First Six Guitar Songs Cover Download Now
guitar fretboard notes print quality Download Now
Blank Guitar Chord Charts print quality Download Now
Guitar Chord Chart Download Now

Nailed It?

Great job! Let others know you're learning REAL music by sharing on social media!

Save This Song!

Enjoying Apple Blossom by The White Stripes? Bookmark the page to make it easier for you to find again!

Press Ctrl+D to bookmark this page

The White Stripes Fan?

We hope you enjoyed learning how to play Apple Blossom by The White Stripes on guitar. Don't stop now! There's loads more songs to learn by at Guvna Guitars!

Comments If you liked this tab or have something to share that'll make playing Apple Blossom better for others, let us all know in the comments below!

Your email address will not be published. Required fields are marked *

Submit Chords

Have a song you know the chords for that you'd like to share with others? Awesome! Submit it by clicking on the button below