Big Iron Door Chords & Lyrics Artist:

Chords (click graphic to learn to play)

Fm chord Dm chord Bbm chord Cm chord A4 chord Gm chord Gmmaj7 chord
20% Off Guitar Tricks Full Access! when you use this link

How To Play

INTRO
 
   Fm      Dm      Bbm      Dm
e|-------------------------------|
B|-9-------6------------------8--|
G|-10------7-------6--------7----|
D|-10------7-------8--------7----|
A|-8-------5-------8--------5----|
E|-----------------6-------------|
  /       /       /        /
 
Fm         Dm            Bbm      Dm
Clang bang clang, with a big iron door
Fm               Dm           Bbm      Dm
They put me in a cell, with a concrete floor
 
  Cm   A4
e|---------|
B|-4-------|
G|-5-------|
D|-5----7--|
A|-3----5--|
E|------5--|
  /    /
 
Cm                     A4
Nine other men in that cell with me
Cm                       A4
Moanin' their fate, with destiny
 
Note: During the next couple of parts, manson isn't putting a whole lot
of emphasis on the higher notes, or the recording isn't bringing them out.
 
  Dm      Bbm     Dm          Dm
e|-------------------------------------|
B|-6-6-6-----------6-6-6-6-6---6-6-6---|
G|-7-7-7---6-6-6---7-7-7-7-7---7-7-7---|
D|-7-7-7---8-8-8---7-7-7-7-7---7-7-7---|
A|-5-5-5-0-8-8-8-0-5-5-5-5-5-0-5-5-5-0-|
E|-------0-6-6-6-0-----------0-------0-|
  / ^ / ^ / ^ / ^ / ^ / ^ / ^ / ^ / ^
 
 Clang    Bang    Clang
 
 
  Dm         Bbm        Gm
e|---------------------------------------|
B|-6-----6-------------------------------|
G|-7-----7----6-----6----3-3-3---3-3-3---|
D|-7-----7----8-----8----5-5-5---5-5-5---|
A|-5-----5----8-----8----5-5-5-0-5-5-5-0-|
E|------------6-----6----3-3-3-0-3-3-3-0-|
  /     /    /     /    / ^ / ^ / ^ / ^
 
  Clang Bang Clang Bang Clang
 
Cm                          Dm
Early in the mornin' at the crack of dawn
Cm                             Dm
They wake us to the tune of a bong bong bong
 
  Gm          Gmmaj7
 
e|-------------------|
B|-------------------|
G|-3--3--3---3-3-3-3-|
D|-5--5--5---4-4-4-4-|
A|-5--5--5---5-5-5-5-|
E|-3--3--3---3-3-3-3-|
  /  ^  /   ^ / ^ /
 
Line up for chow
 
Gm           Gmmaj7
Munchin hard bread
Gm             Gmmaj7
Drinkin' black coffee with that
Cm          Dm
Noise in my head
Dm      Bbm     Dm
Clang   Bang    Clang
Dm          Bbm           Gm
Clang Bang  Clang Bang    Clang
Cm                            Dm
The judge said to me now boy, You've had it

SEE ALSO: Our List Of Guitar Apps That Don't Suck

Latest Downloads That'll help you become a better guitarist

Your First Six Guitar Songs Cover Download Now
guitar fretboard notes print quality Download Now
Blank Guitar Chord Charts print quality Download Now
Guitar Chord Chart Download Now

Nailed It?

Great job! Let others know you're learning REAL music by sharing on social media!

Save This Song!

Enjoying Big Iron Door by Charles Manson? Bookmark the page to make it easier for you to find again!

Press Ctrl+D to bookmark this page

Charles Manson Fan?

We hope you enjoyed learning how to play Big Iron Door by Charles Manson on guitar. Don't stop now! There's loads more songs to learn by at Guvna Guitars!

Comments If you liked this tab or have something to share that'll make playing Big Iron Door better for others, let us all know in the comments below!

Your email address will not be published. Required fields are marked *

Submit Chords

Have a song you know the chords for that you'd like to share with others? Awesome! Submit it by clicking on the button below