Blockades Chords & Lyrics Artist:

Chords (click graphic to learn to play)

Dm chord F chord A chord D5 chord F5 chord A5 chord Gm chord C5 chord G5 chord Bb5 chord
20% Off Guitar Tricks Full Access! when you use this link

How To Play

INTRO
 
Dm Dm F A
 
 
VERSE
 
D5                          D5                  F5
The truth is like when I am killing in order to survive
       A5                    D5
I have never felt so alive
     D5                F5                  A5
I am always seeking to live and die on the edge
D5                   D5                   F5
Life is a broken simulation I'm unable to feel
        A5                         D5
I'm searching for something that's real
     D5                F5                    A5
I am always seeking to see what's behind the veil
 
 
PRE CHORUS
 
Gm      Dm   A              Dm
Trapped in a maze of unseen walls
      Gm  Dm         A
These blockades must fall
 
 
CHORUS
 
D5     C5
Crush, crush
G5          D5
Where's the rush?
C5     Bb5            A5
Seize, fight for your life
D5     C5
Smash, test
G5       D5
Beat the best
G5             A5
Fight for your life
A5
You've been summoned now
 
 
SOLO 1
 
e|--------------------------------------------------------------------------------------------------|
B|--------------------------------------------------------------------------------------------------|
G|--7~~~~\----10----9--7--6h7p6h7p6h7p6h7p6h7p6h7p6\------------------------------------------------|
D|--------------------------------------------------------------------------------------------------|
A|--------------------------------------------------------------------------------------------------|
D|--------------------------------------------------------------------------------------------------|
 
 
VERSE
 
Dm                  Dm
I never sleep or rest
                            F
But I'm still running out of time
       A
I have sacrificed all of my life
    Dm
The time has come to
   Dm                    F
To prove to you what I'm worth
 
 
PRE CHORUS
 
Gm      Dm   A              Dm
Trapped in a maze of unseen walls
      Gm  Dm         A
These blockades must fall
 
 
CHORUS
 
D5     C5
Crush, crush
G5          D5
Where's the rush?
C5     Bb5            A5
Seize, fight for your life
D5     C5
Smash, test
G5       D5
Beat the best
G5             A5
Fight for your life
A5
You've been summoned now
 
 
SOLO 2
 
e|--------------------------------------------------------------------------------------------------|
B|-------11--10--8--11----11--10--8-----------------------------------------------------------------|
G|-----------------------------------9----9h10h12--10--9--7h9h7\----7h9h10--9--7--5----10--9--7--6--|
D|--------------------------------------------------------------------------------------------------|
A|--------------------------------------------------------------------------------------------------|
D|--4b7\0-------------------------------------------------------------------------------------------|
 
e|------------------5h6-----------------------------------------------------------------------------|
B|--------------5h6---------------------------------------------------------------------------------|
G|----------6h7-------------------------------------------------------------------------------------|
D|------6h7-----------------------------------------------------------------------------------------|
A|--6h7---------------------------------------------------------------------------------------------|
D|--------------------------------------------------------------------------------------------------|
 
    T             T            T              T                T                T
e|--10p5h6p5--x8--8p5h6p5--x4--12p9h10p9--x4--13p10h12p10--x8--17p13h15p13--x4--17p12h13p12--x4-----|
B|--------------------------------------------------------------------------------------------------|
G|--------------------------------------------------------------------------------------------------|
D|--------------------------------------------------------------------------------------------------|
A|--------------------------------------------------------------------------------------------------|
D|--------------------------------------------------------------------------------------------------|
 
 
CHORUS
 
D5     C5
Crush, crush
G5          D5
Where's the rush?
C5     Bb5            A5
Seize, fight for your life
D5     C5
Smash, test
G5       D5
Beat the best
G5             A5
Fight for your life
A5
You've been summoned now

SEE ALSO: Our List Of Guitar Apps That Don't Suck

Latest Downloads That'll help you become a better guitarist

Your First Six Guitar Songs Cover Download Now
guitar fretboard notes print quality Download Now
Blank Guitar Chord Charts print quality Download Now
Guitar Chord Chart Download Now

Nailed It?

Great job! Let others know you're learning REAL music by sharing on social media!

Save This Song!

Enjoying Blockades by Muse? Bookmark the page to make it easier for you to find again!

Press Ctrl+D to bookmark this page

Muse Fan?

We hope you enjoyed learning how to play Blockades by Muse on guitar. Don't stop now! There's loads more songs to learn by at Guvna Guitars!

Comments If you liked this tab or have something to share that'll make playing Blockades better for others, let us all know in the comments below!

Your email address will not be published. Required fields are marked *

Submit Chords

Have a song you know the chords for that you'd like to share with others? Awesome! Submit it by clicking on the button below