Blood In The Cut (Acoustic) Chords & Lyrics Artist:

Chords (click graphic to learn to play)

Am chord Em chord G chord
20% Off Guitar Tricks Full Access! when you use this link

How To Play

* = Only play the low strings (E and A)
 
INTRO
Em
 
e|-------------------------|-------------------------|
B|-------------------------|-------------------------|
G|-------------------------|-------------------------|
D|-------------------------|-------------------------|
A|-------7-----------7-----|-------7-----------------| x2
E|-0--0--------0--0--------|-0--0-----0--7--5--3-----|
PM _________________________________________________|
 
 
VERSE 1
    Em
The boy I love's got another girl
 
He might be fucking her right now
Am
I don't have an apartment
                                   Em
Thought if I was smart I'd make it far
 
But I'm still at the start
             Em
Guess I'm contagious it'd be safest if you ran
 
Fuck that's what they all just end up doing in the end
        Am
Take my car and paint it black
 
Take my arm, break it in half
        Em
Say something, do it soon
 
It's too quiet in this room
 
 
CHORUS
       G
I need noise
           Am
I need the buzz of a sub
         Em
Need the crack of a whip
 
Need some blood in the cut
       G
I need noise
           Am
I need the buzz of a sub
         Em
Need the crack of a whip
 
Need some blood in the cut
       Em*
I need blood in the cut
                    N.C.
I need blood in the cut
 
 
INTERLUDE
e|-------------------------|-------------------------|
B|-------------------------|-------------------------|
G|-------------------------|-------------------------|
D|-------------------------|-------------------------|
A|-------7~----------7~----|-------7~----------------| x2
E|-0--0--------0--0--------|-0--0-----0--7--5--3~----|
 
 
VERSE 2
Em
Met back up with the boy I love
 
Cried on the streets of San Francisco
Am
I don't have an agenda
                          Em
All I do is pretend to be ok so my friends
 
Can't see my heart in the blender
    Em
And lately I've been killing all my time
 
Reading through your messages
 
My favorite way to die
        Am
Take my head and kick it in
 
Break some bread for all my sins
      Em
Say a word, do it soon
 
It's too quiet in this room
 
 
CHORUS
       Em
I need noise
 
I need the buzz of a sub
         Em
Need the crack of a whip
 
Need some blood in the cut
       Em
I need noise
 
I need the buzz of a sub
         Em
Need the crack of a whip
 
Need some blood in the cut
       Em*
I need blood in the cut
                    N.C.
I need blood in the cut
 
 
INTERLUDE
e|-------------------------|-------------------------|
B|-------------------------|-------------------------|
G|-------------------------|-------------------------|
D|-------------------------|-------------------------|
A|-------7~----------7~----|-------7~----------------| x2
E|-0--0--------0--0--------|-0--0-----0--7--5--3~----|
 
 
BREAK
G      Am     Em
 I-I-I    I-I   I-I-I
G      Am     Em
 I-I-I    I-I   I-I-I
             Em*
Blood in the cut, cut, cut
 
Em
Na na na na na, na-na na na na, na na na na na na
 
Na na na na na, na-na na na na, na na na na na na
 
Na na na na na, na-na na na na, na na na na na na
                                N.C.
Na na na na na, na-na na na na, na na na na na na
 
 
CHORUS
       Em
I need noise
 
I need the buzz of a sub
         Em
Need the crack of a whip
 
Need some blood in the cut
       Em
I need noise
 
I need the buzz of a sub
         Em
Need the crack of a whip
 
Need some blood in the cut
       Em*
I need blood in the cut
                    N.C.
I need blood in the cut
 
 
 
************************************
 
| ~   Vibrato
| PM  Palm mute
 
************************************

SEE ALSO: Our List Of Guitar Apps That Don't Suck

Latest Downloads That'll help you become a better guitarist

Your First Six Guitar Songs Cover Download Now
guitar fretboard notes print quality Download Now
Blank Guitar Chord Charts print quality Download Now
Guitar Chord Chart Download Now

Nailed It?

Great job! Let others know you're learning REAL music by sharing on social media!

Save This Song!

Enjoying Blood In The Cut (Acoustic) by K.Flay? Bookmark the page to make it easier for you to find again!

Press Ctrl+D to bookmark this page

K.Flay Fan?

We hope you enjoyed learning how to play Blood In The Cut (Acoustic) by K.Flay on guitar. Don't stop now! There's loads more songs to learn by at Guvna Guitars!

Comments If you liked this tab or have something to share that'll make playing Blood In The Cut (Acoustic) better for others, let us all know in the comments below!

Your email address will not be published. Required fields are marked *

Submit Chords

Have a song you know the chords for that you'd like to share with others? Awesome! Submit it by clicking on the button below