Chiisana Te No Hira Chords & Lyrics Artist: , ,

Chords (click graphic to learn to play)

F chord C chord Dm7 chord A Sharp chord Dm chord Am7 chord D sharp chord Am chord G chord D chord Bm chord Em chord Gm chord G sharp chord
20% Off Guitar Tricks Full Access! when you use this link

How To Play

VERSE 1
F       C   Dm7     A#     F     C      A# F C
tooku de    tooku de yureteru inaho no umi
F        C Dm       A#      F     C        A# F C
ho wo age  ho wo age mezashita omoide he to
A#       Am7 A#   C      Dm7  A#        Am7  Dm7 D#        C          A# C
bokura ha    kyou made no kanashii koto zenbu   oboeteru ka, wasureta ka
 
MELODY x1
 
                A#                  F
e|-------------------------------5--8-----5---------------------------------|
B|--------6--8--8--6-------6--8--------8------------------------------------|
G|-----5--------------7-----------------------------------------------------|
D|--5-----------------------------------------------------------------------|
A|--------------------------------------------------------------------------|
E|--------------------------------------------------------------------------|
 
                A#       C          F
e|-------------------------------8--5---------------------------------------|
B|--6-----6--8--8--6-------8--6---------------------------------------------|
G|-----5--------------7-----------------------------------------------------|
D|--------------------------------------------------------------------------|
A|--------------------------------------------------------------------------|
E|--------------------------------------------------------------------------|
 
                A#                  Am
e|-------------------------------5--8------5--------------------------------|
B|--------6--8--8--6-------6--8---------8-----------------------------------|
G|-----5--------------7-----------------------------------------------------|
D|--5-----------------------------------------------------------------------|
A|--------------------------------------------------------------------------|
E|--------------------------------------------------------------------------|
 
    Dm        A#       C          F    G
e|-------------------------------------------------------------------------|
B|--6----5-------------5----6--5----6--------------------------------------|
G|------------7------------------------------------------------------------|
D|-------------------------------------------------------------------------|
A|-------------------------------------------------------------------------|
E|-------------------------------------------------------------------------|
 
 
CHORUS
G        C              G              C         D    G
chiisana te ni mo itsukara ka bokura oikoshiteku tsuyosa
        C              Bm    Em   C  D  G
ureta budou no shita naiteta hi kara aruita
         C              G                 C          D  G
chiisana te de mo hanarete mo bokura ha kono michi yukunda
         C              Bm    Em Dm C  D   G
itsuka kuru hi ha ichiban no omoide wo shimatte
 
INTERLUDE
D#  F            Gm
kisetsu ha utsuri
D#  F               A#
mou tsumetai kaze ga
D#    F            Gm
tsutsumarete nemure
      G#    D#          F
ano haru no uta no naka de
 
CHORUS
         C              G              C         D    G
chiisana te ni mo itsukara ka bokura oikoshiteku tsuyosa
         C              Bm     Em  C  D  G
nureta hoo ni ha dore dake no egao ga utsutta
         C              G                 C          D  G
chiisana te de mo hanarete mo bokura ha kono michi yukunda
          C               Bm    Em  C  D   G
soshite kuru hi ha bokura mo omoide wo shimatta
 
OUTRO
         C             G              C         D  G
chiisana te mo itsu no hi ka bokura oikoshite yukunda
         C             Bm     Em    C  D   G
yagate kuru hi ha atarashii kisetsu wo hiraita
 
 
 MELODY
                A#                  F
e|-------------------------------5--8-----5---------------------------------|
B|--------6--8--8--6-------6--8--------8------------------------------------|
G|-----5--------------7-----------------------------------------------------|
D|--5-----------------------------------------------------------------------|
A|--------------------------------------------------------------------------|
E|--------------------------------------------------------------------------|
 
                A#       C          F
e|-------------------------------8--5---------------------------------------|
B|--6-----6--8--8--6-------8--6---------------------------------------------|
G|-----5--------------7-----------------------------------------------------|
D|--------------------------------------------------------------------------|
A|--------------------------------------------------------------------------|
E|--------------------------------------------------------------------------|
 
                A#                  Am
e|-------------------------------5--8------5--------------------------------|
B|--------6--8--8--6-------6--8---------8-----------------------------------|
G|-----5--------------7-----------------------------------------------------|
D|--5-----------------------------------------------------------------------|
A|--------------------------------------------------------------------------|
E|--------------------------------------------------------------------------|
 
    Dm        A#       C          F    G
e|-------------------------------------------------------------------------|
B|--6----5-------------5----6--5----6--------------------------------------|
G|------------7------------------------------------------------------------|
D|-------------------------------------------------------------------------|
A|-------------------------------------------------------------------------|
E|-------------------------------------------------------------------------|

SEE ALSO: Our List Of Guitar Apps That Don't Suck

Latest Downloads That'll help you become a better guitarist

Your First Six Guitar Songs Cover Download Now
guitar fretboard notes print quality Download Now
Blank Guitar Chord Charts print quality Download Now
Guitar Chord Chart Download Now

Nailed It?

Great job! Let others know you're learning REAL music by sharing on social media!

Save This Song!

Enjoying Chiisana Te No Hira by Clannad, Jun Mareda, Magome Togoshi? Bookmark the page to make it easier for you to find again!

Press Ctrl+D to bookmark this page

Clannad, Jun Mareda, Magome Togoshi Fan?

We hope you enjoyed learning how to play Chiisana Te No Hira by Clannad, Jun Mareda, Magome Togoshi on guitar. Don't stop now! There's loads more songs to learn by , , at Guvna Guitars!

Comments If you liked this tab or have something to share that'll make playing Chiisana Te No Hira better for others, let us all know in the comments below!

Your email address will not be published. Required fields are marked *

Submit Chords

Have a song you know the chords for that you'd like to share with others? Awesome! Submit it by clicking on the button below