Clean Slate Chords & Lyrics Artist:

Chords (click graphic to learn to play)

G chord Em chord C chord D6 chord
20% Off Guitar Tricks Full Access! when you use this link

How To Play

Tuning D#
Riff: (all played alongside plucking along the E A D strings chords)
  G                                              Em   C
E|---------------------------------------0----------------|
B|---------------------3-----3-0h3-3-0h3—--3p0------------|
G|---2-0h2-2-0h2-2-0h2---2p0-------------------2----------|
D|-0----------------------------------------------2----2--|
A|-2----------------------------------------------2----3--|
E|-3----------------------------------------------0----0--|
 
   G
E|---3-2p0---------------------------------------|
B|---------3-----1—0h1-1—0h1--0------------------|
G|-----------2p0----------------2-0--------------|
D|-0--------------------------------2-0------0---|
A|-2------------------------------------0h2--2---|
E|-3-----------------------------------------3---|
 
G
When I was a younger man I thought 
            C                    D6
the pain of defeat would last forever 
    G
But now I don't know what it 
      C               D6         Em      C
would take to make my heart back down
        Em                         C
Cause I only have to wait a little while 
       D6    G                   (Riff)
Before I get my clean slate    
 
 
     G
Then somewhere in another place,
                 C          D6
Who knows? Could be another lifetime
G
Everything we gave away
C                          D6        Em   C
Returns like a seed from a fugitive tree
        Em                         C
And you only have to wait a little while 
       D6    G                   (Riff)
Before you find the truth    
 
        Em                         C
Yeah I only had to wait a little while (x3)
       D6    G
Before I got my clean slate    
 
Enjoy folks!

SEE ALSO: Our List Of Guitar Apps That Don't Suck

Latest Downloads That'll help you become a better guitarist

Your First Six Guitar Songs Cover Download Now
guitar fretboard notes print quality Download Now
Blank Guitar Chord Charts print quality Download Now
Guitar Chord Chart Download Now

Nailed It?

Great job! Let others know you're learning REAL music by sharing on social media!

Save This Song!

Enjoying Clean Slate by M. Ward? Bookmark the page to make it easier for you to find again!

Press Ctrl+D to bookmark this page

M. Ward Fan?

We hope you enjoyed learning how to play Clean Slate by M. Ward on guitar. Don't stop now! There's loads more songs to learn by at Guvna Guitars!

Comments If you liked this tab or have something to share that'll make playing Clean Slate better for others, let us all know in the comments below!

Your email address will not be published. Required fields are marked *

Submit Chords

Have a song you know the chords for that you'd like to share with others? Awesome! Submit it by clicking on the button below