Cold Chords & Lyrics Artist:

Chords (click graphic to learn to play)

Am chord Em chord Dm chord Fmaj7 chord E7 chord F chord E chord G chord C sharp minor chord G sharp minor chord F sharp minor chord Amaj7 chord
G Sharp 7 chord
A chord G sharp chord B chord
20% Off Guitar Tricks Full Access! when you use this link

How To Play

Capo: 4th fret

INTRO
Am  Em  Dm  Fmaj7  E7
 
 
VERSE
Am                            Em
  Girl, the way you broke my heart
                                    Dm    F  E  Am
It shattered like a rock through a window
Am                      Em
I thought we had it so good
                       Dm    F E
Never really saw this comin'
 
 
CHORUS
Am                        G
Oh, why you got to be so cold?
                      Dm
Why you got to go and cut me like a knife
     F               E7
And put our love on ice?
 
Am                               G
Oh, girl you know you left this hole
                                Dm
Right here in the middle of my soul
      F   E7                    Am
Oh oh oh, why you got to be so cold?
 
 
INSTRUMENTAL
Am  G  Dm  F E Am
 
 
VERSE
Am                    Em
What am I supposed to say
                    Dm
If anybody ask me about you?
                           F         E7 Am
I guess I'll tell 'em I'm without you
 
Am                    Em
How am I supposed to live
                       Dm
When I built my life around you?
                       F       E7
Try to put yourself in my shoes
 
 
CHORUS
Am                        G
Oh, why you got to be so cold?
                      Dm
Why you got to go and cut me like a knife
     F              E7
And put our love on ice?
 
Am                               G
Oh, girl you know you left this hole
                               Dm
Right hеre in the middle of my soul
      F   E7                    F
Oh oh oh, why you got to be so cold?
 
 
BREAK
                                G
I can only feel my love hangin' on
Em       G             F
I don't feel like it's over
                 E7
I'm still on fire
E7 N.C.
Why you gotta be so... ?
 
 
INSTRUMENTAL
Am  Em  Dm  F  E7
Am  Em  Dm  F  E7

SOLO

03:06
    b    Hold Bend..............slowly release bend
e|-10--10--10--10--10--10--10--10--10--10--10--10--10--10-8~~~~~~--|
B|-----------------------------------------------------------------|
G|-----------------------------------------------------------------|
D|-----------------------------------------------------------------|
A|-----------------------------------------------------------------|
E|-----------------------------------------------------------------|
 
03:13
e|---h---------------8---------|---------------------|
B|--8-10~~~~~~-10-10---10-10~~-|-10------------------|
G|-----------------------------|----7-5------h-------|
D|-----------------------------|---------7--5-7~~~~~-|
A|-----------------------------|---------------------|
E|-----------------------------|---------------------|
 
03:21
e|--------|-------|--h------|--h---------|
B|----b---|--h--8-|-8-10-10-|-8-10-10-10-|
G|----5-7-|-7-9---|---------|------------|
D|--7-----|-------|---------|------------|
A|--------|-------|---------|------------|
E|--------|-------|---------|------------|
 
03:25
e|--h----------------------------------|
B|-8-10-8---p--------------------------|
G|---------9-7-7-5------h---h---h---h--|
D|-------------------7-5-7-5-7-5-7-5-7-|
A|-------------------------------------|
E|-------------------------------------|
 
03:29
e|-------------------------|----------------|
B|----------------h--------|-b--------------|
G|---------------5-7-5-----|-7-5-7-5~~~~----|
D|--------5-7-7--------7-7-|------------7-5-|
A|-5-7-7-------------------|----------------|
E|-------------------------|----------------|
 
03:37
e|--------------------|
B|-------h------------|
G|------5-7-5----h----|
D|-5-7--------7-5-7-7-|
A|--------------------|
E|--------------------|
 
                         ***************
 
CHORUS
Am                        G
Oh, why you got to be so cold?
                      Dm
Why you got to go and cut me like a knife
     F              E7
And put our love on ice?
 
Am                               G
Oh, girl you know you left this hole
                                Dm
Right here in the middle of my soul
      F   E7                    Am   G
Oh oh oh, why you got to be so cold?
 
 
OUTRO
                      Dm   F
Why you got to be so cold?
E7                  Am      G
Why you got to be so  cold?
                  Dm   F E7 Am
You got to be so cold
 
Am  G  Dm Am F E

SEE ALSO: Our List Of Guitar Apps That Don't Suck

Latest Downloads That'll help you become a better guitarist

Your First Six Guitar Songs Cover Download Now
guitar fretboard notes print quality Download Now
Blank Guitar Chord Charts print quality Download Now
Guitar Chord Chart Download Now

Nailed It?

Great job! Let others know you're learning REAL music by sharing on social media!

Save This Song!

Enjoying Cold by Chris Stapleton? Bookmark the page to make it easier for you to find again!

Press Ctrl+D to bookmark this page

Chris Stapleton Fan?

We hope you enjoyed learning how to play Cold by Chris Stapleton on guitar. Don't stop now! There's loads more songs to learn by at Guvna Guitars!

Think you know Chris Stapleton? Prove it: Take The Quiz!

Comments If you liked this tab or have something to share that'll make playing Cold better for others, let us all know in the comments below!

Your email address will not be published. Required fields are marked *

Submit Chords

Have a song you know the chords for that you'd like to share with others? Awesome! Submit it by clicking on the button below