Down On The Farm Chords & Lyrics Artist:

Chords (click graphic to learn to play)

A chord B chord Bb chord C chord D chord E chord Em chord G chord
20% Off Guitar Tricks Full Access! when you use this link

How To Play

INTRO
 
Bass x 4 bars
 
e|----------------------------|
B|----------------------------|
G|----------------------------|  X4
D|---2-X-2-X-2-X-2------------|
A|---2-X-2-X-2-X-2-3h-3po-----|
E|---0-X-0-X-0-X-0------------|
 
INTRO
Em   A G  C Bb   C  D  [x2]
 
 
VERSE 1
      Em                G
All I need is some inspiration
         D           C    A
Before I do somebody some harm
  Em               G
I feel just like a vegetable
D            C   A
Down here on the farm
 
  Em            G
Nobody comes to see me
         D                   C  A
There's nothing here to turn me on
    Em                G
I'm like a fish outta water
D            C   A
Down here on the farm
 
 
[Link]
Em   A G  C Bb   C  D  [x2]
 
 
VERSE 2
     Em             G
They told me to get healthy
     D              C    A
They told me to get some sun
    Em                   G
But boredom eats me like cancer
D            C   A
Down here on the farm
 
    Em                G
I'm Drinking lemonade shandy
        D                    C  A
There's nothing here to turn me on
        Em          G
I don't even have a lover
D            C   A
Down here on the farm
 
SOLO
e|--------------------------------------------------------------------------------|
B|-----15------12--12-12--12-12-12---15b-15b-15r-X-12-12-12-----------------------|
G|-14b----14b--12--12-12--12-12-12------------------------------------------------|
D|--------------------------------------------------------------------------------|
A|--------------------------------------------------------------------------------|
E|--------------------------------------------------------------------------------|
 
e|--------------------------------------------------------------------------------|
B|-15p13p12--15p13p12--15p13p12--15p13p12--15p13p12--15p13p12--15p13p12--15p13p12-|
G|--------------------------------------------------------------------------------|
D|--------------------------------------------------------------------------------|
A|--------------------------------------------------------------------------------|
E|--------------------------------------------------------------------------------|
 
e|----------------------------------------------------------15--------------------|
B|-15-13-12------------------------15-----15-----15---12-15b----pr15-15-----------|
G|----------14-14b-12-12--------14b----14b----14b---------------------------------|
D|--------------------------------------------------------------------------------|
A|--------------------------------------------------------------------------------|
E|--------------------------------------------------------------------------------|
 
e|--------------------------------------------------------------------------------|
B|----12--12--12--12---15b----13p-12----------------------------------------------|
G|--15b-15b-15b-15b------------------14p-12----12-14-14b--------------------------|
D|------------------------------------------14------------------------------------|
A|--------------------------------------------------------------------------------|
E|--------------------------------------------------------------------------------|
 
 
Em   A G  C Bb   C  D  [x4]
 
VERSE 3
  Em               G
I write a thousand letters
        D           C    A
Till my fingers all gone numb
    Em             G
But I never see no postman
D            C   A
Down here on the farm
 
  Em                  G
I Call my baby on the telephone, I say
D             C    A
Come down and have some fun
    Em                 G
But she knows what the score is
D            C   A
Down here on the farm
 
 
VERSE 4
        Em                G
I can't fall in love with wheat fields
        D            C      A
I can't fall in love with a barn
     Em                     G
When everything smells like horse shit
D            C   A
Down here on the farm
 
     Em                 G
Blue skies and swimming pools
D      C    A
Add so much charm
    Em                    G
But I'd rather be back in Soho
D            C   A
Than here on the farm
 
 
OUTRO
Em   A G  C Bb   C  D  [x4]
 
Em
 
 
 
************************************
 
| b  Bend
| p  Pull-off
 
 
************************************

SEE ALSO: Our List Of Guitar Apps That Don't Suck

Latest Downloads That'll help you become a better guitarist

Your First Six Guitar Songs Cover Download Now
guitar fretboard notes print quality Download Now
Blank Guitar Chord Charts print quality Download Now
Guitar Chord Chart Download Now

Nailed It?

Great job! Let others know you're learning REAL music by sharing on social media!

Save This Song!

Enjoying Down On The Farm by UK Subs? Bookmark the page to make it easier for you to find again!

Press Ctrl+D to bookmark this page

UK Subs Fan?

We hope you enjoyed learning how to play Down On The Farm by UK Subs on guitar. Don't stop now! There's loads more songs to learn by at Guvna Guitars!

Comments If you liked this tab or have something to share that'll make playing Down On The Farm better for others, let us all know in the comments below!

Your email address will not be published. Required fields are marked *

Submit Chords

Have a song you know the chords for that you'd like to share with others? Awesome! Submit it by clicking on the button below