Figure It Out Chords & Lyrics Artist:

Chords (click graphic to learn to play)

E5 chord
F Sharp 5 chord
G5 chord A5 chord B5 chord C5 chord A7 chord D7 chord
20% Off Guitar Tricks Full Access! when you use this link

How To Play

INTRO
N.C.
 
 
VERSE 1
N.C.
I'm happy you came to me first, before the bubble burst
N.C.
I'm happy you answered my calls, I'm bouncing off the walls
N.C.
Impossible to be tamed, her need, cellophane
N.C.
I'm happy you like to play games, why did you run away?
 
 
CHORUS
E5                  F#5    G5      A7
We could spend some time together
E5                 F#5   G5     A7
What he had, he'll never know
     A5                  B5    C5    D7
Your boyfriend gives you no respect
    E5             F#5     G5
And I can see your getting it
   N.C.
So figure it out and let's go
 
 
BREAK
N.C.
 
 
VERSE 2
N.C.
I'm happy you're so impulsive, means that your passionate
N.C.
I'm happy you're moving so fast, but will it ever last?
N.C.
I know you want to break free from this monotony
N.C.
I'm happy you're coming with me, but by choice, it's gotta be
 
 
CHORUS
E5                  F#5    G5      A7
We could spend some time together
E5                 F#5   G5     A7
What he had, he'll never know
     A5                  B5    C5    D7
Your boyfriend gives you no respect
    E5             F#5     G5
And I can see your getting it
   N.C.
So figure it out and let's go
 
 
INSTRUMENTAL
   E5                                              E5
e|-----------------------------------------------|-----------------------------------------------|
B|-------------------------8--8-----8------------|-------------------------10b---10p8--10p8------|
G|-------------------7-----------------9---------|-------------------7-----------------------9---|
D|-2-----------9---------------------------------|-2-----------9---------------------------------|
A|-2---------------------------------------------|-2---------------------------------------------|
E|-0---------------------------------------------|-0---------------------------------------------|
 
   E5                                              E5
e|-----------------------------------------------|-----------------------------------------------|
B|-------------------------8--8-----8------------|-------------------------10b---10p8--10p8------|
G|-------------------7-----------------9---------|-------------------7-----------------------9---|
D|-2-----------9---------------------------------|-2-----------9---------------------------------|
A|-2---------------------------------------------|-2---------------------------------------------|
E|-0---------------------------------------------|-0---------------------------------------------|
 
   E5                                              E5
e|-----------------------------------------------|-----------------------------------------------|
B|-------------------------8--8-----8------------|-------------------------10pb--10p9--10p9------|
G|-------------------7-----------------9---------|-------------------7-----------------------9---|
D|-2-----------9---------------------------------|-2-----------9---------------------------------|
A|-2---------------------------------------------|-2---------------------------------------------|
E|-0---------------------------------------------|-0---------------------------------------------|
 
   E5                                              E5
e|-----------------------------------------------|-----------------------------------------------|
B|-------------------------8--8-----8------------|-------------------------10b---10p8--10p8------|
G|-------------------7-----------------9---------|-------------------7-----------------------9\--|
D|-2-----------9---------------------------------|-2-----------9---------------------------------|
A|-2---------------------------------------------|-2---------------------------------------------|
E|-0---------------------------------------------|-0---------------------------------------------|
 
 
| b  Bend (full step)
| pb Pre-Bend (full step)
| p  Pull-off
| \  Slide down
 
 
VERSE 3
N.C.
I'm happy you're changing your speed, slow down and lay with me
N.C.
On bottom but always discrete, kneel down and kiss her feet
N.C.
I'm happy you're going too far, full strength before we start
N.C.
Sometimes you make it so hard, scream loud as we come apart
 
 
CHORUS
E5                  F#5    G5      A7
We could spend some time together
E5                 F#5   G5     A7
What he had, he'll never know
     A5                  B5    C5    D7
Your boyfriend gives you no respect
    E5             F#5     G5
And I can see your getting it
   N.C.                     E5*
So figure it out and let's go
 
 
CHORUS
E5                  F#5    G5      A7
We could spend some time together
E5                 F#5   G5     A7
What he has, he'll never know
     A5                  B5    C5    D7
Your boyfriend gives you no respect
    E5             F#5     G5
And I can see your getting it
   N.C.
So figure it out and let's go (Ah)
N.C.
Figure it out and let's go (Yeah)
N.C.
Figure it out and let's go (Mmm)
N.C.
Figure it out and let's... go

SEE ALSO: Our List Of Guitar Apps That Don't Suck

Latest Downloads That'll help you become a better guitarist

Your First Six Guitar Songs Cover Download Now
guitar fretboard notes print quality Download Now
Blank Guitar Chord Charts print quality Download Now
Guitar Chord Chart Download Now

Nailed It?

Great job! Let others know you're learning REAL music by sharing on social media!

Save This Song!

Enjoying Figure It Out by Maroon 5? Bookmark the page to make it easier for you to find again!

Press Ctrl+D to bookmark this page

Maroon 5 Fan?

We hope you enjoyed learning how to play Figure It Out by Maroon 5 on guitar. Don't stop now! There's loads more songs to learn by at Guvna Guitars!

Comments If you liked this tab or have something to share that'll make playing Figure It Out better for others, let us all know in the comments below!

Your email address will not be published. Required fields are marked *

Submit Chords

Have a song you know the chords for that you'd like to share with others? Awesome! Submit it by clicking on the button below