Fire In Bone Chords & Lyrics Artist:

Chords (click graphic to learn to play)

G chord A chord Bm chord D chord Em chord
20% Off Guitar Tricks Full Access! when you use this link

How To Play

Intro bass line:
e|------------------------------------------------------------------|
B|------------------------------------------------------------------|
G|------------------------------------------------------------------|
D|------------------------------------------------------------------|
A|------------------------------------------------------------------|
E|--3-33-3-3-3---3-33-3-3-3-3-5--5-55-5-5-5-5-5--55-5-5-5--5h77-5-3-|
 
e|-----------------------------------------------------------|
B|-----------------------------------------------------------|
G|-----------------------------------------------------------|
D|-----------------------------------------------------------|
A|-----------------------------------------------------------|
E|--3-33-3-3-3---3-33-3-3-3-7-5--5-55-5-5-5-5-5--55-5-5-5--7-|
 
Verse bass line:
e|------------------------------------------------------------------|
B|------------------------------------------------------------------|
G|------------------------------------------------------------------|
D|------------------------------------------------------------------|
A|------------------------------------------------------------------|
E|--3-33-3-3-3---3-33-3-3-3-3-5--5-55-5-5-5-5-5--55-5-5-5--5h77-5-3-|
 
e|-------------------------------------------------------------|
B|-------------------------------------------------------------|
G|-------------------------------------------------------------|
D|-------------------------------------------------------------|
A|-------------------------------------------------------------|
E|--3-33-3-3-3---3-33-3-3-3-3-5--5-55-5-5-5-5-5--55-5-5-5--7-5-|
 
 
INTRO
        G     A                        Bm    A
                    (Fire in bone)
        G                              Bm    A
I felt fire in bone (Fire in bone)
                                       Bm          G
I felt fire in bone (Fire in bone)
 
 
VERSE 1
 
I felt cast out
 
I felt eighty-sixed
                    A
I felt darkness
                           Bm   A   G
But I felt fire in bone
 
I felt no good
 
I felt lowdown
                     A
And I felt alone
                     Bm    A
I felt unknown
 
 
CHORUS
        G             D
I felt fire in bone
        A             Bm
I felt fire in bone
N.C.
(Wrongly accused and disowned)
                G
I felt fire in bone
 
 
INSTRUMENTAL
Bm  A  D  A  Bm  G   (listen for timing)
 
 
VERSE 2
 
I felt big time
 
I felt major league
                        A
I felt weird sin
                        Bm    A    G
I felt fire in bone
 
I felt ripped off
 
Run down, wrung out
                        A
Empty, unseen
                        Bm    A
And preyed upon
 
 
CHORUS
        G                D
I felt fire in bone
        A
I felt fire in bone
 
 
REFRAIN
        D
When I came back empty-handed
           G
You were waiting in the road
        Em
And you fell on my neck
         G
And you took me back home
       D                    G
After all that I took from you
       A                    Bm
After all that I put you through
            G
Here I am
 
 
CHORUS
        A              Bm    A     G
I felt fire in bone
 
 
VERSE 3
 
I felt washed up
                                   A
I felt tempest-tossed And seasick
                            Bm    A
But I felt fire in bone
G
I felt mislead
                                  A
I felt chained up, unclean, unknown
                   Bm     A
I felt unknown
 
 
CHORUS
        G              D
I felt fire in bone
        A
I felt fire in bone
 
 
VERSE 4
          D
They say no one’s gonna save you
              G
You’ve gotta make it on your own
        Em
But I called from the dark
          G
And you picked up the phone
        D                 G
On my back in the raging blue
         A                        Bm
I looked up, and you cut right through
 
 
REFRAIN
        D
When I came back empty-handed
    G
You met me in the road
        Em
And you fell on my neck
         G
And you took me back home
       D                    G
After all that I took from you
       A                    Bm
After all that I put you through
            G
Here I am
 
 
OUTRO
            G
Here I am
            G
Here I am
            G
Here I am
 

SEE ALSO: Our List Of Guitar Apps That Don't Suck

Latest Downloads That'll help you become a better guitarist

Your First Six Guitar Songs Cover Download Now
guitar fretboard notes print quality Download Now
Blank Guitar Chord Charts print quality Download Now
Guitar Chord Chart Download Now

Nailed It?

Great job! Let others know you're learning REAL music by sharing on social media!

Save This Song!

Enjoying Fire In Bone by The Killers? Bookmark the page to make it easier for you to find again!

Press Ctrl+D to bookmark this page

The Killers Fan?

We hope you enjoyed learning how to play Fire In Bone by The Killers on guitar. Don't stop now! There's loads more songs to learn by at Guvna Guitars!

Comments If you liked this tab or have something to share that'll make playing Fire In Bone better for others, let us all know in the comments below!

Your email address will not be published. Required fields are marked *

Submit Chords

Have a song you know the chords for that you'd like to share with others? Awesome! Submit it by clicking on the button below