Goodbye Lucille 1 Chords & Lyrics Artist:

Chords (click graphic to learn to play)

A(add9) chord Emaj7 chord C sharp minor chord Amaj7 chord F#m13 chord
F Sharp minor 7 chord
F#m9 chord B chord G#7+5 chord G#7/F# chord E chord D7-5 chord Amaj7/C# chord
G Sharp 7 chord
F sharp minor chord
20% Off Guitar Tricks Full Access! when you use this link

How To Play

         Eb,Ab,Db,Gb,Bb,Eb
A(add9)  x ,0 ,7 ,6 ,0 ,x
Emaj7    x ,7 ,9 ,8 ,9 ,7
C#m      x ,4 ,6 ,6 ,5 ,x
Amaj7    5 ,x ,6 ,6 ,5 ,x
Amaj7*   x ,x ,7 ,6 ,5 ,4
Amaj7/C# x ,4 ,7 ,6 ,5 ,4
F#m9     x ,9 ,7 ,9 ,9 ,x
F#m13    2 ,4 ,2 ,2 ,4 ,x
F#m7     2 ,4 ,2 ,2 ,5 ,x
F#m      2 ,4 ,4 ,2 ,2 ,2
B        7 ,9 ,9 ,8 ,7 ,7
G#7+5    4 ,6 ,4 ,5 ,5 ,4 or G#aug
G#aug.   x ,x ,6 ,5 ,5 ,4
G#7      4 ,6 ,4 ,5 ,4 ,4
G#7/F#   x ,x ,4 ,5 ,4 ,4
E        0 ,2 ,2 ,1 ,0 ,0
D7-5     x ,5 ,6 ,5 ,7 ,x
 
 
[intro ( solo 4 times )]
 
Eb|-12-12-11-11-9-9-------|-12-12-11-11-9-9-------|-12-12-11-11-9-9-------|-12-12-11-11-9-9-------|
Bb|-----------------12-12-|-----------------12-12-|-----------------12-12-|-----------------12-12-|
Gb|-----------------------|-----------------------|-----------------------|-----------------------|
Db|-----------------------|-----------------------|-----------------------|-----------------------|
Ab|-----------------------|-----------------------|-----------------------|-----------------------|
Eb|-----------------------|-----------------------|-----------------------|-----------------------|
 
  A(add9) Emaj7   C#m    Amaj7  A(add9) Emaj7   C#m    Amaj7
Eb|-----|-----7-|-------|-------|-----|-----7-|-------|-------|
Bb|--0-—|----9--|----5--|----5--|--0-—|----9--|----5--|----5--|
Gb|--6--|---8---|---6---|---6---|--6--|---8---|---6---|---6---|
Db|--7--|--9----|--6--6-|--6--6-|--7--|--9----|--6--6-|--6--6-|
Ab|--0--|-7-----|-4-----|-------|--0--|-7-----|-4-----|-------|
Eb|-----|-------|-------|-5-----|-----|-------|-------|-5-----|
 
  A(add9) Emaj7   C#m    Amaj7  A(add9) Emaj7   C#m   F#m13 F#m7
Eb|-----|-----7-|-------|-------|-----|-----7-|-------|--------|
Bb|--0-—|----9--|----5--|----5--|--0-—|----9--|----5--|-4—--5--|
Gb|--6--|---8---|---6---|---6---|--6--|---8---|---6---|---2--2-|
Db|--7--|--9----|--6--6-|--6--6-|--7--|--9----|--6--6-|--2-----|
Ab|--0--|-7-----|-4-----|-------|--0--|-7-----|-4-----|--------|
Eb|-----|-------|-------|-5-----|-----|-------|-------|-2------|
 
VERSE 1
 
( A(add9) ) Emaj7
Ooh ........Johnny, Johnny, Johnny
C#m        Amaj7
There is a time for tears
A(add9) Emaj7
Ooh.....Johnny, Johnny, Johnny
C#m               Amaj7
You won't make it any better
A(add9) Emaj7
Ooh.....Johnny, Johnny, Johnny
C#m            Amaj7
You might well make it worse
A(add9) Emaj7
Ooh.....Johnny, Johnny, Johnny
C#m          F#m9
I advise you to forget her
A(add9) Emaj7               C#m   F#m13 F#m7
Ooh.....Johnny, Johnny, ooh
 
INTERLUDE
 
A(add9)        B              ( A(add9) )
You're not the first though it hurts
Emaj7
Johnny, Johnny, ooh
 
VERSE 2
 
C#m            Amaj7
What, are you twenty-one?
A(add9) Emaj7
Ooh.....Johnny, Johnny, Johnny
C#m            Amaj7
Why don't you give it a rest
A(add9) Emaj7
Ooh.....Johnny, Johnny, Johnny
C#m             Amaj7
The world is a million
A(add9) Emaj7
Ooh.....Johnny, Johnny, Johnny
C#m          F#m9
There can be no contest
A(add9) Emaj7               C#m  F#m13 F#m7
Ooh.....Johnny, Johnny, ooh
 
CHORUS
 
A(add9)       B
Life's not complete
B         C#m     G#7+5  G#7/F#   E
Till your heart's missed   a  beat
E             D7-5        Amaj7/C#   G#7
And you'll never make it up
G#7                   E      D7-5
Or turn back the clock
D7-5   Amaj7/C# G#7       Amaj7*
No you won't,      no you won't
Amaj7*               F#m    Emaj7
No you won't, no you won't
C#m                Amaj7
Johnny, Johnny, ooh
 
| A(add9) | Emaj7 | C#m | F#m13 F#m7 |
 
VERSE 3
 
A(add9) Emaj7
Ooh.....Johnny, Johnny, Johnny
C#m      Amaj7
She is a person too
A(add9) Emaj7
Ooh.....Johnny, Johnny, Johnny
C#m          Amaj7
She has her own will
A(add9) Emaj7
Ooh.....Johnny, Johnny, Johnny
C#m                    Amaj7
Why don't you join the foreign legion
A(add9) Emaj7
Ooh.....Johnny, Johnny, Johnny
C#m                      F#m9
You're still in love with Hayley Mills
A(add9) Emaj7                C#m   F#m13 F#m7
Ooh.....Johnny, Johnny, ooh...
 
 
CHORUS
 
A(add9)       B
Life's not complete
B         C#m     G#7+5  G#7/F#   E
Till your heart's missed   a  beat
E             D7-5        Amaj7/C#   G#7
And you'll never make it up
G#7                   E      D7-5
Or turn back the clock
D7-5   Amaj7/C# G#7       Amaj7*
No you won't,      no you won't
Amaj7*          F#m             Emaj7
No you won't, no .....you won't
 
OUTRO
 
C#m                 Amaj7
Johnny, Johnny,ooh..Johnny Johnny ooh
A(add9)   Emaj7
...............
C#m                            Amaj7
Johnny, Johnny, Johnny, Johnny, ooh
A(add9)  Emaj7
..............
C#m      Amaj7
..............
A(add9)  Emaj7
..............
C#m      F#m
..............
A(add9)  A(add9) C#m   A(add9)
.............................

SEE ALSO: Our List Of Guitar Apps That Don't Suck

Latest Downloads That'll help you become a better guitarist

Your First Six Guitar Songs Cover Download Now
guitar fretboard notes print quality Download Now
Blank Guitar Chord Charts print quality Download Now
Guitar Chord Chart Download Now

Nailed It?

Great job! Let others know you're learning REAL music by sharing on social media!

Save This Song!

Enjoying Goodbye Lucille 1 by Prefab Sprout? Bookmark the page to make it easier for you to find again!

Press Ctrl+D to bookmark this page

Prefab Sprout Fan?

We hope you enjoyed learning how to play Goodbye Lucille 1 by Prefab Sprout on guitar. Don't stop now! There's loads more songs to learn by at Guvna Guitars!

Comments If you liked this tab or have something to share that'll make playing Goodbye Lucille 1 better for others, let us all know in the comments below!

Your email address will not be published. Required fields are marked *

Submit Chords

Have a song you know the chords for that you'd like to share with others? Awesome! Submit it by clicking on the button below