Green Mountain State Live Chords & Lyrics Artist:

Chords (click graphic to learn to play)

G chord Em chord C chord Cmaj7 chord Cadd9 chord
20% Off Guitar Tricks Full Access! when you use this link

How To Play

Capo:3rd fret

The plucking for each chords are:
 
      G                        Em
e|----------------|      |----------------|
B|-----0h1h3------|      |----0h1h3-------|
G|--0-------------|      |--0-------------|
D|----------------|      |----------------|
A|----------------|      |----------------|
E|3---------------|      |0---------------|
       C
e|----------------|
B|-------0h1h3----|
G|---0------------|
D|----------------|
A|-3--------------|
E|----------------|
 

 
          G                  Em                  C
e|---0-0-0-0-0-0-0-0---0-0-0-0-0-0-0-0----0-0-0-0-0-0-0-0------------------|
B|---0h1-0h1-3-3-3-3---0h1-0h1-3-3-3-3----0h1-0h1-3-3-3-3------------------|
G|---0-0-0-0-0-0-0-0---0-0-0-0-0-0-0-0----0-0-0-0-0-0-0-0------------------|
D|---0-0-0-0-0-0-0-0---2-2-2-2-2-2-2-2----2-2-2-2-2-2-2-2------------------|
A|---2-2-2-2-2-2-2-2---2-2-2-2-2-2-2-2----3-3-3-3-3-3-3-3------------------|
E|---3-3-3-3-3-3-3-3-------------------------------------------------------|
     D U D U D U D U
 
INTRO
In the intro he adds an open e string on Em.
 
      G                        Em
e|----------------|        |----------0-----|
B|-----0h1h3------|        |----0h1h3-------|
G|--0-------------|        |--0-------------|
D|----------------| x3     |----------------|
A|----------------|        |----------------|
E|3---------------|        |0---------------|
 
 
VERSE 1
G                                     Em
   I call to the Green Mountain State
G                                 Em
   I call to the silence you make
G                               Em
   Do you live inside outside me
G                                    Em     C
   As you speak through ten thousand leaves
 
(G G Em C)
 
 
CHORUS
 
          G                             Em                              C
There's a way, there's a way, there's a way, there's a way, there's a way
          G                             Em                              C
There's a way, there's a way, there's a way, there's a way, there's a way
 
 
(Single Strum)
 
        G   Em  Cmaj7
It has always,  always
 
        G   Em  Cmaj7
It has always,  always
 
 
[Plays Intro]
 
 
VERSE 2
 
G                                      Em    C
   In the house way down by the lake
G                               Em  C
   A story told in a mystic way
G                                                Em     C
   And those roads, they roam through big fields, yeah
G                                       Em    C
   Those roads, my heart, they come still, they come still
 
(G G Em C)
 
 
CHORUS
 
          G                             Em                              C
There's a way, there's a way, there's a way, there's a way, there's a way
          G                             Em                              C
There's a way, there's a way, there's a way, there's a way, there's a way
 
 
        G   Em  Cmaj7
It has always,  always
 
        G   Em  Cmaj7
It has always,  always
 
Hey!
 
VERSE 3
 
(Starts Strummig: G Em)x2
 
G                                  Em  C
   I call to the letters in leaves
G                                  Em  C
   I call to the ones we don't see
G                           Em   C
   My song is on the wind, yeah
G                           Em   C
   No end nowhere to begin
 
Cadd9
   Yeah hoo oh yea
 
 
OUTRO
 
          G                             Em                              C
There's a way, there's a way, there's a way, there's a way, there's a way
          G                             Em                              C
There's a way, there's a way, there's a way, there's a way, there's a wa
          G                             Em                              C
There's a way, there's a way, there's a way, there's a way, there's a way
          G                             Em                              C
There's a way, there's a way, there's a way, there's a way, there's a way
 
        G   Em  Cmaj7
It has always,  always
 
        G   Em  Cmaj7
It has always,  always
 
        G   Em  Cmaj7
It has always,  always
 
        G   Em  Cmaj7
It has always,  always

SEE ALSO: Our List Of Guitar Apps That Don't Suck

Latest Downloads That'll help you become a better guitarist

Your First Six Guitar Songs Cover Download Now
guitar fretboard notes print quality Download Now
Blank Guitar Chord Charts print quality Download Now
Guitar Chord Chart Download Now

Nailed It?

Great job! Let others know you're learning REAL music by sharing on social media!

Save This Song!

Enjoying Green Mountain State Live by Trevor Hall? Bookmark the page to make it easier for you to find again!

Press Ctrl+D to bookmark this page

Trevor Hall Fan?

We hope you enjoyed learning how to play Green Mountain State Live by Trevor Hall on guitar. Don't stop now! There's loads more songs to learn by at Guvna Guitars!

Comments If you liked this tab or have something to share that'll make playing Green Mountain State Live better for others, let us all know in the comments below!

Your email address will not be published. Required fields are marked *

Submit Chords

Have a song you know the chords for that you'd like to share with others? Awesome! Submit it by clicking on the button below