High Enough Chords & Lyrics Artist:

Chords (click graphic to learn to play)

Bb chord Cm chord D7 chord Eb chord F chord G chord Gm chord
20% Off Guitar Tricks Full Access! when you use this link

How To Play

INTRO
Eb Cm G x4
 
 
VERSE 1
             Eb                 Cm G
I don't like anyone better than you, it's true
            Eb                 Cm
I'd crawl a mile in a desolate place
         G
With the snakes, just for you
          Eb                Cm                  G
Oh I'm an animal, hand me a tramadol, gimme the juice
           Eb                  Cm
You are my citadel, you are my wishing well
        G
My baby blue oh, oh, oh
 
 
PRE CHORUS
  Eb                     Cm
I used to like liquor to get me inspired
    G
But you look so beautiful, my new supplier
  Eb                      Cm
I used to like smoking to stop all the thinking
    G
But I found a different buzz
    Eb                      Cm
The world is a curse, it'll kill if you let it
  G
I know they got pills that can help you forget it
     Eb                   Cm                       G
They bottle it, call it medicine, but I don't need drugs
 
 
CHORUS
                  Eb         Cm G
Cause I'm already high enough
                       Eb  Cm G
You got me, you got me good
            Eb         Cm G
I'm already high enough
                Eb                  Cm G
I only, I only, I only got eyes for you
 
 
VERSE 2
           Eb                Cm G
Do you see anyone other than me?
                         Eb                  Cm
Baby please, I'll take a hit of whatever you got
      G                              Eb
Maybe two, maybe three, oh you're phenomenal
            Cm                 G
Feel like a domino, fall to my knees
       Eb                 Cm
I am a malady, you are my galaxy
           G
My sweet relief oh, oh, oh
 
 
PRE CHORUS
  Eb                     Cm
I used to like liquor to get me inspired
    G
But you look so beautiful, my new supplier
  Eb                      Cm
I used to like smoking to stop all the thinking
    G
But I found a different buzz
    Eb                      Cm
The world is a curse, it'll kill if you let it
  G
I know they got pills that can help you forget it
     Eb                   Cm                       G
They bottle it, call it medicine, but I don't need drugs
 
 
CHORUS
                  Eb         Cm G
Cause I'm already high enough
                       Eb  Cm G
You got me, you got me good
            Eb         Cm G
I'm already high enough
                Eb                  Cm G
I only, I only, I only got eyes for you
 
 
INTERLUDE
Guitar 1:
e|-----------|-----------|---------------|---------------|
B|-----------|-----------|---------------|---------------|
G|-----------|-----------|---------------|---------------|
D|-----------|-----------|---------------|---------------|
A|-6---6-6-6-|-3---3-3-3-|-10---10-10-10-|-10---10-10-10-|
E|-----------|-----------|---------------|---------------|
 
e|-----------|-----------|---------|---------|
B|-----------|-----------|---------|---------|
G|-----------|-----------|---------|---------|
D|-----------|-----------|---------|---------|
A|-6---6-6-6-|-3---3-3-3-|---------|---------|
E|-----------|-----------|-3---3---|-3---3---|
 
Guitar 2:
e|-----------|-----------|-----------|-----------|
B|-----------|-----------|-----------|-----------|
G|-----------|-----------|-----------|-----------|
D|-----------|-----------|-----------|-----------|
A|-6---6-6-6-|-3---3-3-3-|-6---6-6-6-|-3---3-3-3-|
E|-----------|-----------|-----------|-----------|
 
e|-----------|-----------|---------|---------|
B|-----------|-----------|---------|---------|
G|-----------|-----------|---------|---------|
D|-----------|-----------|---------|---------|
A|-6---6-6-6-|-3---3-3-3-|-6---3---|-5-------|
E|-----------|-----------|---------|---------|
 
 
BRIDGE
Cm                    F
  Don't try to give me cold water
Cm                    F
  I don't wanna sober up
Bb         Gm
  All I see  are tomorrows
Eb                        D7
  Oh, the stars were made for us
 
 
CHORUS
            Eb         Cm G
I'm already high enough
                       Eb  Cm G
You got me, you got me good
            Eb         Cm G
I'm already high enough
                Eb                  Cm G
I only, I only, I only got eyes for you
 
 
OUTRO
Eb Cm G
        Ooh-oh
Eb Cm G
      I only got eyes for you ooh-oh
Eb Cm G
        Ooh-oh
Eb Cm              G
   I only, I only, I only got eyes for you

SEE ALSO: Our List Of Guitar Apps That Don't Suck

Latest Downloads That'll help you become a better guitarist

Your First Six Guitar Songs Cover Download Now
guitar fretboard notes print quality Download Now
Blank Guitar Chord Charts print quality Download Now
Guitar Chord Chart Download Now

Nailed It?

Great job! Let others know you're learning REAL music by sharing on social media!

Save This Song!

Enjoying High Enough by K.Flay? Bookmark the page to make it easier for you to find again!

Press Ctrl+D to bookmark this page

K.Flay Fan?

We hope you enjoyed learning how to play High Enough by K.Flay on guitar. Don't stop now! There's loads more songs to learn by at Guvna Guitars!

Comments If you liked this tab or have something to share that'll make playing High Enough better for others, let us all know in the comments below!

Your email address will not be published. Required fields are marked *

Submit Chords

Have a song you know the chords for that you'd like to share with others? Awesome! Submit it by clicking on the button below