Hundred Dollars Chords & Lyrics Artist:

Chords (click graphic to learn to play)

Eb chord Ab chord Db chord Gb chord Bb chord Em chord C chord F chord Gm chord A chord Cadd9 chord
20% Off Guitar Tricks Full Access! when you use this link

How To Play

Tuning Eb Ab Db Gb Bb Eb
 
 
*Em strum pattern timing is several palm mutes with synchonous Em strums
 
 
 
INTRO
 
e|--3-(x14)-------------|
B|----------------------|
G|----------------------|
D|----------------------|
A|-----------3-4-5------|
E|------------------0---|
 
 
Em                      C
City girls are all the same
Em                              F
They play you like a pinball game
           Em
Oh what a summer
 
Em                    C
Making love to make believe
Em                                  F
Their hearts are on not up their sleeves
           Em
Oh what a summer
Em
To lie under violet or to guys that ask for your number
Em
Oh would you wonder
 
 
[Why Riff]
 
e-----------|
b-----------|
g-----------|
d-2-1-------|
a-----5-4-3-|
e-----------|
 "WW-HH-YYY"
 
 
C
If I paid a hundred dollars for the chance to see you cry
And a hundred more to see you cry again 'stead a singing
Gm    A
No,   no
Cadd9
body's warmer to the touch than hers but you'll never
Gm    A
Know, know
Cadd9
anything as cold as the heart of a city girl
 
 
[Riff #2]
 
e--5--1-------------1---------------------------------------------------------|
b--------3-----1-------3---------------3--------------------------------------|
g-----------3-------------3--0--0h2-------3--0----------3--0------------------|
d-----------------------------------------------1--3----------1---------------|
a----------------------------------------------------------------3--3h5-------|
e-----------------------------------------------------------------------------|
 
 
e---5--1-------------1---------------------------------------------------------|
b---------3-----1-------3---------------3--------------------------------------|
g------------3-------------3--0--0h2-------3--0----------3--0------------------|
d------------------------------------------------1--3----------1---------------|
a------------------------------------------------------------------3--4--5-----|
e---------------------------------------------------------------------------0--|
 
 
Em              C
This imaginary friend
Em                      F
Can't remember he's pretend
            Em
Oh what a summer
   Em
To lie Under neon and glass or to me as I ask for your number
 Em
Oh would you wonder
 
 
[Why Riff]
 
e-----------|
b-----------|
g-----------|
d-2-1-------|
a-----5-4-3-|
e-----------|
 "WW-HH-YYY"
 
C
If I paid a hundred dollars for the chance to see you cry
And a hundred more to see ya cry again 'stead a singing
Gm    A
No,   no
Cadd9
body's warmer to the touch than hers but you'll never
Gm    A
Know, know
Cadd9
anything as cold as the heart of a city girl
 
 
[Riff #2]
 
e--5--1-------------1-------------------------------------------------------|
b--------3-----1-------3---------------3------------------------------------|
g-----------3-------------3--0--0h2-------3--0----------3--0----------------|
d-----------------------------------------------1--3----------1-------------|
a----------------------------------------------------------------3--3h5-----|
e---------------------------------------------------------------------------|
 
 
e---5--1-------------1---------------------------------------------------------|
b---------3-----1-------3---------------3--------------------------------------|
g------------3-------------3--0--0h2-------3--0----------3--0------------------|
d------------------------------------------------1--3----------1---------------|
a------------------------------------------------------------------3--4--5-----|
e---------------------------------------------------------------------------0--|
 
 
BRIDGE
 
e---------------------|
b---------------------|
g---------------------|
d---------------------|
a---------------------|
e---1-3----1-1-3------|
 
 
Gm
We took a hammer and chisel to the cornerstone
Cause the building had to come down
In a show more pretty than practical
For to satisfy the city girls around
Oh it was beautiful but it fell too soon
Took a few good men and left these city guys
 
 
 
           C
Who would pay a hundred dollars for the chance to see you cry
And a hundred more to see ya cry again 'stead a singing
Gm    A
No,   no
Cadd9
body's warmer to the touch than hers but you'll never
Gm    A
Know, know
Cadd9
anything as cold as the heart of a city girl
 
 
OUTRO
  Em

SEE ALSO: Our List Of Guitar Apps That Don't Suck

Latest Downloads That'll help you become a better guitarist

Your First Six Guitar Songs Cover Download Now
guitar fretboard notes print quality Download Now
Blank Guitar Chord Charts print quality Download Now
Guitar Chord Chart Download Now

Nailed It?

Great job! Let others know you're learning REAL music by sharing on social media!

Save This Song!

Enjoying Hundred Dollars by Punch Brothers? Bookmark the page to make it easier for you to find again!

Press Ctrl+D to bookmark this page

Punch Brothers Fan?

We hope you enjoyed learning how to play Hundred Dollars by Punch Brothers on guitar. Don't stop now! There's loads more songs to learn by at Guvna Guitars!

Comments If you liked this tab or have something to share that'll make playing Hundred Dollars better for others, let us all know in the comments below!

Your email address will not be published. Required fields are marked *

Submit Chords

Have a song you know the chords for that you'd like to share with others? Awesome! Submit it by clicking on the button below