Hyper Music Acoustic Chords & Lyrics Artist:

Chords (click graphic to learn to play)

Dm chord Am chord G chord Gm chord
20% Off Guitar Tricks Full Access! when you use this link

How To Play

Intro:
(You can play the intro during the Chorus and Outro)
 
|-------------------------|--------------------------|
|-------6-----------------|-------6------------------|
|-------5-----------------|-------5------------------|
|-------4---x-------5--7--|-------4---x--------------|
|--0----5---x-3--5--3--5--|-------5---x-9--10--9--7--|
|--0----------3--5--------|--0----------9--10--9--7--| x6
 
|--10---10---10---10---10---10---10---10---|
|--10---10---10---10---10---10---10---10---|
|--10---10---10---10---10---10---10---10---|
|--(0)--(0)--(0)--(0)--(0)--(0)--(0)--(0)--|
|------------------------------------------|
|------------------------------------------| x2
 
 
            Dm    Am      G       Gm
Your golden skies feed my role
                  Dm        Am        G       Gm
in this forgotten space race under my control
Dm      Am      G       Gm
who's returned from the dead?
Dm      Am      G       Gm
who remains (just to spit it in your face)
 
 
 
[Play Intro]           Dm                   G
You know that I don' t want you and I never did
         Dm                   G
I don' t want you and I never will
 
 
           Dm      Am      G       Gm
You wanted more than I was worth
                     Dm      Am      G       Gm
And you think I was scared and you needed proof
Dm  Am     G       Gm
Who really cares anymore?
Dm  Am     G      Gm
Who restrains? (just to spit it in your face)
 
 
[Play Intro]     Dm                    G
You know I don't love you, and I never did
        Dm                    G
I don't want you, and I never will, waahhh

SEE ALSO: Our List Of Guitar Apps That Don't Suck

Latest Downloads That'll help you become a better guitarist

Your First Six Guitar Songs Cover Download Now
guitar fretboard notes print quality Download Now
Blank Guitar Chord Charts print quality Download Now
Guitar Chord Chart Download Now

Nailed It?

Great job! Let others know you're learning REAL music by sharing on social media!

Save This Song!

Enjoying Hyper Music Acoustic by Muse? Bookmark the page to make it easier for you to find again!

Press Ctrl+D to bookmark this page

Muse Fan?

We hope you enjoyed learning how to play Hyper Music Acoustic by Muse on guitar. Don't stop now! There's loads more songs to learn by at Guvna Guitars!

Comments If you liked this tab or have something to share that'll make playing Hyper Music Acoustic better for others, let us all know in the comments below!

Your email address will not be published. Required fields are marked *

Submit Chords

Have a song you know the chords for that you'd like to share with others? Awesome! Submit it by clicking on the button below