I Once Sat At Your Table Chords & Lyrics Artist:

Chords (click graphic to learn to play)

Emadd4 chord Csus4 chord C chord C over Bb chord Bb chord G chord G/A chord G/B chord Gsus4 chord Asus4/G chord Gmaj7 chord C6 chord Em7 chord Gadd2 chord
20% Off Guitar Tricks Full Access! when you use this link

How To Play

INSTRUMENTAL
     Fadd2#4            Emadd4         Csus4   C    Csus4 C    C/Bb   Bb         G      G/A   G/B
d|---10--------10-------9--------------5-------5----5-----5----------------------0------0-----0-----|
B|---12-----------12----10-------------6-------5----6-----5----5------3----------0------0-----0-----|
g|---12-----------------12-------------5-------5----5-----5----5------3----------0------0-----0-----|
D|---10-----------------9--------------5-------5----5-----5----5------3----------0------0-----0-----|
G|---10-----------------9--------------5-------5----5-----5----3------3----------0------0-----0-----|
G|---10-----------------9--------------5-------5----5-----5----3------3----------0------2-----4-----|
 
     Gsus4      Asus4/G   Gmaj7         C6      C   C6   C   G
d|---5----------7---------4-------------5-------5---5----5---0---|
B|---3----------5---------0-------------5-------5---5----5---0---|
g|---5----------7---------4-------------5-------5---5----5---0---|
D|---5----------7---------4-------------7-------5---7----5---0---|
G|---0----------0---------0-------------5-------5---5----5---0---|
G|---0----------0---------0-------------5-------5---5----5---0---|
 
 
Fadd2#4   Emadd4    Csus4   C    Csus4 C    C/Bb   Bb     G    G/A   G/B
Gsus4     Asus4/G   Gmaj7   C6   C     C6   C    G
Gsus4     Asus4/G   Gmaj7   C6   C     C6   C    G
 
Fadd2#4   Emadd4    Csus4   C    Csus4 C    C/Bb   Bb     G    G/A   G/B
Gsus4     Asus4/G   Gmaj7   C6   C     C6   C    G
Gsus4     Asus4/G   Gmaj7   C6   C     C6   C    G
 
Fadd2#4   Emadd4    Csus4   C    Csus4 C    C/Bb   Bb     G    G/A   G/B
Gsus4     Asus4/G   Gmaj7   C6   C     C6   C    G
Gsus4     Asus4/G   Gmaj7   C6   C     C6   C
 
C6   Em7   Gadd2

SEE ALSO: Our List Of Guitar Apps That Don't Suck

Latest Downloads That'll help you become a better guitarist

Your First Six Guitar Songs Cover Download Now
guitar fretboard notes print quality Download Now
Blank Guitar Chord Charts print quality Download Now
Guitar Chord Chart Download Now

Nailed It?

Great job! Let others know you're learning REAL music by sharing on social media!

Save This Song!

Enjoying I Once Sat At Your Table by Stone Temple Pilots? Bookmark the page to make it easier for you to find again!

Press Ctrl+D to bookmark this page

Stone Temple Pilots Fan?

We hope you enjoyed learning how to play I Once Sat At Your Table by Stone Temple Pilots on guitar. Don't stop now! There's loads more songs to learn by at Guvna Guitars!

Comments If you liked this tab or have something to share that'll make playing I Once Sat At Your Table better for others, let us all know in the comments below!

Your email address will not be published. Required fields are marked *

Submit Chords

Have a song you know the chords for that you'd like to share with others? Awesome! Submit it by clicking on the button below