I Was Wrong Chords & Lyrics Artist:

Chords (click graphic to learn to play)

Dm7 chord D9sus4 chord E chord Gm chord Fm chord A chord C chord Bb7 chord
20% Off Guitar Tricks Full Access! when you use this link

How To Play

 INTRO
   Dm7   D9sus4    Dm7   D9sus4
E|-5---5--5---------5----5---------------------------|
B|-5h6-6--5---------5h6--5---------------------------|
G|-5---5--5---------5----5---------------------------|
D|-5h7-7--5---------5h7--5---------------------------| x2
A|-5---5--5---------5----5--------5--7--5h7p5-----5--|
E|--------X--5--8--------X--5--8---------------8-----|
 
You can either continue the intro right into the verse until you hit the Gm chord, or to make it easier
you can just play the chords as is without the filler he throws in.
 
VERSE
Dm7       D9sus4            Dm7          D9sus4
I've been thinking 'bout my thoughtless words
Dm7   D9sus4                  Dm7        D9sus4
And I know just how much they must have hurt
Gm                Fm Gm
And I take it back
Gm
Won't you let me take it back
 
    Dm7  D9sus4    Dm7  D9sus4
E|-5---5--5---------5----5---------------------------|
B|-5h6-6--5---------5h6--5---------------------------|
G|-5---5--5---------5----5---------------------------|
D|-5h7-7--5---------5h7--5---------------------------| x2
A|-5---5--5---------5----5--------5--7--5/7\5-----5--|
E|-----------5--8-----------5--8---------------8-----|
 
Dm7     D9sus4             Dm7        D9sus4
You know I told you that I don't love you
Dm7      D9sus4             Dm7     D9sus4
That I'd be better off with someone new
Gm
But I take it back
Gm                       A
Won't you let me take it back
 
CHORUS
Dm7                C      Gm
Girl you know that I-------I still love you
Dm7               C      Gm
And you know that I-------I'm so alone
Dm7          C      Gm
I don't know whyyyyyyy
Gm          Fm Gm
I told you that I didn't need you
                       (mute)
Can't you see that baby I was wrong
 
SOLO
E|----------------------------------------------------------------|
B|----------------6b7-6b7-6b7-6b7-6b7-6b7-------6b7---------------|
G|------------5-7-------------------------7-5-7-----7-------------|
D|------3-5/7-----------------------------------------------------|
A|--3h5-----------------------------------------------------------|
E|----------------------------------------------------------------|
 
E|-----------------------8----------------------------------------|
B|----6-8-8b10b8p6---------8b10-6-8-6----8b10-8b11-8-8p6----------|
G|--7--------------7-7-7--------------7------------------5--------|
D|----------------------------------------------------------------|
A|----------------------------------------------------------------|
E|----------------------------------------------------------------|
 
E|----------------------------------------------------------------|
B|-6-8-6h8p6------------------------------------------------------|
G|-----------7-5h7p5----------------------------------------------|
D|-------------------7\5p3---------------------3-5-3b4------------|
A|-------------------------5-5-5-5-5-5-5-3h5-5---------5-5-5------|
E|----------------------------------------------------------------|
 
E|----------------------------------------------------------------|
B|----------------------------------------------------------------|
G|----------------------------------------------------------------|
D|-------------------------------------------3-5-3-5b6-3-5-3b4----|
A|-3h5-5-5-5-5-5-3h5-5-5-5-5-5-3h5-5-5-5-5-5-------------------5-5|
E|----------------------------------------------------------------|
 
VERSE
Bb7                             Dm7
What I wouldn't give to be your lover again
Bb7                          Dm7
All I want to do is touch your skin
Bb7
If I had you right here right now
Gm
I'd tell you, tell you, tell you, tell you
 
CHORUS
Dm7                C      Gm
Girl you know that I-------I still love you
Dm7               C      Gm
And you know that I-------I'm so alone
Dm7          C      Gm
I don't know whyyyyyyy
Gm          Fm Gm
I told you that I didn't need you
                       N.C.
Can't you see that baby I was wrong

SEE ALSO: Our List Of Guitar Apps That Don't Suck

Latest Downloads That'll help you become a better guitarist

Your First Six Guitar Songs Cover Download Now
guitar fretboard notes print quality Download Now
Blank Guitar Chord Charts print quality Download Now
Guitar Chord Chart Download Now

Nailed It?

Great job! Let others know you're learning REAL music by sharing on social media!

Save This Song!

Enjoying I Was Wrong by Chris Stapleton? Bookmark the page to make it easier for you to find again!

Press Ctrl+D to bookmark this page

Chris Stapleton Fan?

We hope you enjoyed learning how to play I Was Wrong by Chris Stapleton on guitar. Don't stop now! There's loads more songs to learn by at Guvna Guitars!

Think you know Chris Stapleton? Prove it: Take The Quiz!

Comments If you liked this tab or have something to share that'll make playing I Was Wrong better for others, let us all know in the comments below!

Your email address will not be published. Required fields are marked *

Submit Chords

Have a song you know the chords for that you'd like to share with others? Awesome! Submit it by clicking on the button below