If You’re Going To Heaven Chords & Lyrics Artist:

Chords (click graphic to learn to play)

A chord Bm chord D chord Dm chord E chord F sharp minor chord G sharp minor chord
20% Off Guitar Tricks Full Access! when you use this link

How To Play

D              Dm        A
   If you're goin, to heaven   
 
e|----7--7------5--5-----------|
B|----7--7------5--5-----------|
G|-----------------------------|
D|-----------------------------|
A|-----------------------------|
E|-----------------------------|
 
 D          E                 A
   And you think you know the way 
 
e|----7--7------5--5-----------|
B|----7--7------5--5-----------|
G|-----------------------------|
D|-----------------------------|
A|-----------------------------|
E|-----------------------------|
 
D         Dm                   A
  Please show me the right direction
            F#m
   And ill follow you
 
Bm      E                    A
   I wont let you get away
D              Dm              A
   And you're heart is sad and heavy
 
e|----7--7------5--5-----------|
B|----7--7------5--5-----------|
G|-----------------------------|
D|-----------------------------|
A|-----------------------------|
E|-----------------------------|
 
D                E                A
  You hide your face behind your hands
 
e|----7--7------5--5-----------|
B|----7--7------5--5-----------|
G|-----------------------------|
D|-----------------------------|
A|-----------------------------|
E|-----------------------------|
 
D            Dm               A
   If youll take a chance and let me
         F#m
    Ill follow you
Bm        E               A
   I will always be your man
 
e|---x--x------x-----x—x-|
B|---x--x------x-----x—x-|
G|---x--x------x-----x—x-|
D|---x--x------x-----x—x-|
A|---x--x------x-----x—x-|
E|---x--x------x-----x—x-|
 
Bm                             F#m      E
   You know I don't need your attention
Bm                                F#m      E
   I don't need your pity or your grief
 
D           Dm             A
   Im not a slave to your affection 
F#m                          E
   Im a slave to your belief
D              Dm       A
   So if youre goin to heaven
 
e|----7--7------5--5-----------|
B|----7--7------5--5-----------|
G|-----------------------------|
D|-----------------------------|
A|-----------------------------|
E|-----------------------------|
 
D          E             A
   Say you wont leave me behind
 
e|----7--7------5--5-----------|
B|----7--7------5--5-----------|
G|-----------------------------|
D|-----------------------------|
A|-----------------------------|
E|-----------------------------|
 
D                Dm           A
   Cause without you, im as helpless 
         F#m
   as a little child
Bm         E              A
   Girl I need you by my side.......yeah
 
e|---------------------------------?---------------------------------------
B|---------------------------------?---------------------------------------
G|----/11-----/10-----/9-----------?-------/11----/13----/14--------/19/---
D|---------------------------------?---------------------------------------
A|---------------------------------?---------------------------------------
E|---------------------------------?---------------------------------------
 
e|-------------------------------------------------------------------------
B|-------------------------------------------------------------------------
G|-----/14-13h-11h-14--------7---9---10------------------------------------
D|------------------------------------------11b---7--9--11—9h-7h-9---------
A|-------------------------------------------------------------------------
E|-------------------------------------------------------------------------
 
e|-------------------------------------------------------------------------
B|---9-9-7---9-----------7--9--7--10---------------------------------------
G|-------------7-----------------------------------------------------------
D|---------------9--7------------------------------------------------------
A|-------------------------------------------------------------------------
E|-------------------------------------------------------------------------
 
e|---x--x------x-----x—x-|
B|---x--x------x-----x—x-|
G|---x--x------x-----x—x-|
D|---x--x------x-----x—x-|
A|---x--x------x-----x—x-|
E|---x--x------x-----x—x-|
 
 
Bm                              F#m           E
   You know I don't need your attention......NO!
Bm                                           F#m    E
   I don't need your pity, I don't need your grief
 
D           Dm             A
   Im not a slave to your affection
F#m                  E
   Im a slave to your belief
 
D               Dm      A
   So if you're goin to heaven
 
e|----7--7------5--5-----------|
B|----7--7------5--5-----------|
G|-----------------------------|
D|-----------------------------|
A|-----------------------------|
E|-----------------------------|
 
D             E                 A
   And you're sure you know the way
 
e|----7--7------5--5-----------|
B|----7--7------5--5-----------|
G|-----------------------------|
D|-----------------------------|
A|-----------------------------|
E|-----------------------------|
 
D          Dm                A
   Please show me the right direction
            F#m
    and ill follow you
 
Bm            E              A  G#m  F#m
   I wont be let you get away....no, no
Bm        E             A
   I wont let you get away
X

SEE ALSO: Our List Of Guitar Apps That Don't Suck

Latest Downloads That'll help you become a better guitarist

Your First Six Guitar Songs Cover Download Now
guitar fretboard notes print quality Download Now
Blank Guitar Chord Charts print quality Download Now
Guitar Chord Chart Download Now

Nailed It?

Great job! Let others know you're learning REAL music by sharing on social media!

Save This Song!

Enjoying If You’re Going To Heaven by Burden Brothers? Bookmark the page to make it easier for you to find again!

Press Ctrl+D to bookmark this page

Burden Brothers Fan?

We hope you enjoyed learning how to play If You’re Going To Heaven by Burden Brothers on guitar. Don't stop now! There's loads more songs to learn by at Guvna Guitars!

Comments If you liked this tab or have something to share that'll make playing If You’re Going To Heaven better for others, let us all know in the comments below!

Your email address will not be published. Required fields are marked *

Submit Chords

Have a song you know the chords for that you'd like to share with others? Awesome! Submit it by clicking on the button below