Jag Utan Dig Chords & Lyrics Artist:

Chords (click graphic to learn to play)

A chord Asus4 chord Bm chord D chord G chord F sharp minor chord Em7 chord D/A chord
D over C Sharp chord
20% Off Guitar Tricks Full Access! when you use this link

How To Play

Capo: 4th fret

INTRO
 
     D       G       A         D    D/C#
|-----2---------------------------2----2--|
|----3----------0-------2--------3----3---|
|---2----0-2---0-0-----2-----0--2----2----|
|--0----4-----0---0---2--2-4---0----------|
|--------------------0--------------4-----|
|------------3----------------------------|
 
 
   Bm  D/A  Em7  Asus4  D       G   A
|--------------------------2--------------|
|----3--------------------3-3-----0----2--|
|---4--------------------2---2---0----2---|
|--4-------0-2-2-4-0-0--0-------0----2----|
|-2----0-2------------2-------------0-----|
|------------------------------3----------|
 
     D       G       A         D    D/C#
|-----2---------------------------2----2--|
|----3----------0-------2--------3----3---|
|---2----0-2---0-0-----2-----0--2----2----|
|--0----4-----0---0---2--2-4---0----------|
|--------------------0--------------4-----|
|------------3----------------------------|
 
 
   Bm  D/A  Em7  Asus4   D     Em7    Asus4
|--------------------------2--------------|
|----3--------------------3-3-----2----4--|
|---4--------------------2---2---0----2---|
|--4-------0-2-2-4-0-0--0-------0----2----|
|-2----0-2------------2-------------0-----|
|-----------------------------0-----------|
**
 
[vers 1]
D             G
Flygplan utan vingar
A           D    D/C#
Kinder utan rodnad
 
Bm   D/A  Em7  Asus4     D     Em7 A   D
...Hmmmmmmmm...,Jag utan dig
 
[vers 2]
D         G
Piff utan Puff
A          D     D/C#
Pajas utan cirkus
 
Bm   D/A  Em7  Asus4     D     Em7 A
...Hmmmmmmmm...,Jag utan dig
 
[mellanspel 1]
D        A        F#m      G
Skeppsbruten utan land i sikte
G   F#m  G     A  D
Vad vore jag utan dig?
 
[stick 1]
 
D  G   A  D  D/C#  Bm D/A Em7 Asus4 D Em7 A  D
 
[vers 3]
D          G
Clyde utan Bonnie
A           D    D/C#
Sommar utan juli
 
Bm D/A        Em7        Asus4    D    Em7 A  D
   Det är bara jag, bara jag utan dig
 
[vers 4]
D              G
McCartney utan Lennon
A            D    D/C#
Mio utan Jum Jum
 
Bm D/A        Em7        Asus4    D    Em7 A
   Det är bara jag, bara jag utan dig
 
[mellanspel 2]
 
D      A        F#m     G
Båt på hav utan vind i segel
G   F#m  G     A   D
Vad vore jag utan dig?
 
[stick 2]
 
D  G   A  Bm D/A  G  F#m Em7 Asus4 D   Em7 A
 
D    A F#m   G   F#m   G   A D
hmmmm........................
 
[outtro repeat fade out]
D    A F#m   G   F#m   G    A D
hmmmm........................

SEE ALSO: Our List Of Guitar Apps That Don't Suck

Latest Downloads That'll help you become a better guitarist

Your First Six Guitar Songs Cover Download Now
guitar fretboard notes print quality Download Now
Blank Guitar Chord Charts print quality Download Now
Guitar Chord Chart Download Now

Nailed It?

Great job! Let others know you're learning REAL music by sharing on social media!

Save This Song!

Enjoying Jag Utan Dig by Håkan Hellström? Bookmark the page to make it easier for you to find again!

Press Ctrl+D to bookmark this page

Håkan Hellström Fan?

We hope you enjoyed learning how to play Jag Utan Dig by Håkan Hellström on guitar. Don't stop now! There's loads more songs to learn by at Guvna Guitars!

Comments If you liked this tab or have something to share that'll make playing Jag Utan Dig better for others, let us all know in the comments below!

Your email address will not be published. Required fields are marked *

Submit Chords

Have a song you know the chords for that you'd like to share with others? Awesome! Submit it by clicking on the button below