Jesse Chords & Lyrics Artist:

Chords (click graphic to learn to play)

Am chord Bb7 chord C7 chord Bb chord C chord G chord Gm7 chord F chord
20% Off Guitar Tricks Full Access! when you use this link

How To Play

INTRO
 
e|--8s7-----5---5--5--5--5--5----6---6--6--6--6--6-8s7-----5---5--5--5--5--5-s-8---8--8--s-7-s-6--6--6--|
B|----------5---5--5--5--5--5----6---6--6--6--6--6---------5---5--5--5--5--5-s-8---8--8--s-7-s-6--6--6--|
G|----------5---5--5--5--5--5----7---7--7--7--7--7---------5---5--5--5--5--5-s-9---9--9--s-8-s-7--7--7--|
D|----------7---7--7--7--7--7----6---6--6--6--6--6---------7---7--7--7--7--7-s-8---8--8--s-7-s-6--6--6--|
A|--------------7--7--7--7--7--------8--8--8--8--8-------------7--7--7--7--7-s-10--10-10-s-9-s-8--8--8--|
E|-------5------5--5--5--5--5s6------6--6--6--6--6------5------5--5--5--5--5-s-8---8--8--s-7-s-6--6--6--|
 
e|--8s7-----5---5--5--5--5--5----6---6--6--6------6--6-s-8---8--8--s-7-s-6--6-------------------------|
B|----------5---5--5--5--5--5----6---6--6--6------6--6-s-8---8--8--s-7-s-6--6-------------------------|
G|----------5---5--5--5--5--5----7---7--7--7h8h7--7--7-s-9---9--9--s-8-s-7--7-------------5-----------|
D|----------7---7--7--7--7--7----6---6--6--6------6--6-s-8---8--8--s-7-s-6--6---------5h7---7---------|
A|--------------7--7--7--7--7--------8--8--8------8--8-s-10--10-10-s-9-s-8--8-----5h7-----------5-----|
E|-------5------5--5--5--5--5s6------6--6--6------6--6-s-8---8--8--s-7-s-6--6----------------------3--|
 
 
VERSE 1
Am                       Bb7
Jesse s all alone and crying
Am                         C7  Bb7
Jesse what have you done wrong?
Am                                  Bb7
You can't sit there feeling sorry for yourself
C7               Bb
Get a life and make sure you be strong
 
e|-----------------------|
B|-----------------------|
G|----------5------------|
D|------5h7---7----------|
A|--5h7-----------5------|
E|------------------3----|
 
VERSE 2
           Am                  Bb7
She said...Nobody really loves me
Am              C7  Bb7
Nobody really cares
Am                     Bb7
Won't somebody please help me?
C7               Bb
I just need someone to be there
 
e|-----------------------|
B|-----------------------|
G|----------5------------|
D|------5h7---7----------|
A|--5h7-----------5------|
E|------------------3----|
 
CHORUS
C           G                     Gm7               F
Jesse close your mind to hurtful cries and people's lies
C       G            Bb               F
Jesse I understand, take my hand, feel alright
 
[Repeat Intro]
 
VERSE 3
Am                           Bb7
Hey Jesse, I think that I can help you
Am              C7  Bb7
Cos I used to feel like you do
Am                     Bb7
I know someone who can solve all your pain
C7               Bb
He was there for me and for you he will too
 
e|-----------------------|
B|-----------------------|
G|----------5------------|
D|------5h7---7----------|
A|--5h7-----------5------|
E|------------------3----|
 
VERSE 4
              Am                    Bb7
She said....No you don't understand me
Am              C7  Bb7
Nobody ever does mmmm
Am                     Bb7
I'm too frustrated with my life
C7               Bb
I wanna get off and end it with no fuss
 
e|-----------------------|
B|-----------------------|
G|----------5------------|
D|------5h7---7----------|
A|--5h7-----------5------|
E|------------------3----|
 
CHORUS
C           G                     Gm7               F
Jesse close your mind to hurtful cries and people's lies
C           G               Bb               F
Jesse I understand, take my hand and feel alright
C           G                     Gm7               F
Jesse feel your life , see the light, touch the mind
C           G        Bb                  F
Jesse I understand, take my hand and feel alright
 
         C            G
Don't you feel that way
         Bb          F
Hear the words I say
         C            G
Face the world today
         Bb          F
Hold your hands to pray
           C                                    G
Yeah, you close your mind to hurtful cries and people's lies
Bb                                F
I understand so take my hand and don't tell lies
      C                                   G
Don't be afraid of plans you've made don't delay
Bb                                  F
Live for today hear what I say it's not too late!
 
[Ad lib]
C  G  Bb  F
 
 
 
************************************
 
| h  Hammer-on
 
************************************

SEE ALSO: Our List Of Guitar Apps That Don't Suck

Latest Downloads That'll help you become a better guitarist

Your First Six Guitar Songs Cover Download Now
guitar fretboard notes print quality Download Now
Blank Guitar Chord Charts print quality Download Now
Guitar Chord Chart Download Now

Nailed It?

Great job! Let others know you're learning REAL music by sharing on social media!

Save This Song!

Enjoying Jesse by Mother Earth? Bookmark the page to make it easier for you to find again!

Press Ctrl+D to bookmark this page

Mother Earth Fan?

We hope you enjoyed learning how to play Jesse by Mother Earth on guitar. Don't stop now! There's loads more songs to learn by at Guvna Guitars!

Comments If you liked this tab or have something to share that'll make playing Jesse better for others, let us all know in the comments below!

Your email address will not be published. Required fields are marked *

Submit Chords

Have a song you know the chords for that you'd like to share with others? Awesome! Submit it by clicking on the button below