Kärlek Är Ett Brev Skickat Tusen Gånger Chords & Lyrics Artist:

Chords (click graphic to learn to play)

Bb chord Cm chord Dm chord Eb chord F chord Gm chord
20% Off Guitar Tricks Full Access! when you use this link

How To Play

Det går också att sätta capo på 3:e bandet och sänka till G istället om man har problem med att spela
barreackorden.
 
INTRO
Bb Dm Gm Dm Eb Bb F
 
[Pianointrot]
e|-18-----------------------------------------------|
B|----18-16-15--------------------------------------|
G|-------------15--15-------------------------------|
D|-------------------15-13-12-8--8------------------|
A|---------------------------------8----------------|
E|-----------------------------------6--------------|
 
[Gitarrsolo]
e|-------------------------------------------------------------------------------------------|
B|-------11-13-13b~---------11-13--15-13-11--------------------------------11-13/15-13-15-11-|
G|-10h12-------------10h12-----------------12-10--------------------10h12--------------------|
D|----------------------------------------------12p10---------10h12--------------------------|
A|---------------------------------------------------13~---13--------------------------------|
E|-------------------------------------------------------------------------------------------|
 
e|-----------------------------------------------------------------|
B|-13b-13b-11------------------------------------------------------|
G|------------12-10--12-10-----10----------------------------------|
D|-------------------------12-----12--10---------------------------|
A|---------------------------------------13------------------------|
E|-----------------------------------------13----------------------|
 
VERSE
             Bb
 Vad jag bryr mig om nu
                 Dm
 är att du kommer nära mig 
Gm              Dm                Eb
 även om det är försent att älska dig 
            Bb           F
 Vad jag bryr mig om nu 
Cm           Gm       Eb
 är att från samma säng 
             F       Bb
 lyssna till samma regn 
 
Bb Dm
 
                 Bb
 Vad jag bryr mig om nu 
          Dm
 är att få ut dig ur skallen 
Gm                    Dm                 Eb
 är att aldrig ge hela hjärtat för kärlek igen  
        Bb                     F
 den tar slut från kyss till kyss 
                 Cm
 Vad jag bryr mig om nu
Gm             Eb          F    Bb
 är att aldrig ge hjärtat rakt ut 
 
INTERLUDE
 Bb Dm Eb Bb F
 
 Bb Dm Gm Eb Cm Gm Eb Bb F  x2
 
VERSE
              Bb
 Vad jag bryr mig om nu
Dm
 är att du ligger vaken 
Gm                 Dm              Eb
 i morgontimmen när regnet slår mot fönstret 
         Bb                         F
 och det låter som om det går på dig 
           Cm
 Vad jag bryr mig om nu
        Gm             Eb
 är att du då ser det 
             F           Bb
 hur smutsigt livet blivit 
 
Bb Dm
 
                  Bb
 Och vad jag bryr mig om nu 
Dm                        Gm
 är att se din blick så sårad
         Dm             Eb
 när alla löften klingar falskt
              Bb           F
 nästa gång du lovar någon allt
                 Cm
 Vad jag bryr mig om nu
   Gm             Eb
 i dina armar om mig
                 F                     Bb
 även om jag vet att jag måste glömma dig 
 
INTERLUDE
 Bb Dm Gm Eb Cm Gm Eb Bb F
 
VERSE
Bb                                 Dm
 Vad jag bryr mig om är att se dig gråta 
               Gm
 för jag har gråtit
        F         Eb
 och du ringde aldrig
Cm                     Gm               Eb
 Vad jag bryr mig om är att du kallar på mig 
                   F                    Bb
 även om jag inte kommer tillbaks till dig 
 
Bb                                   Dm
 Vad jag bryr mig om är att se som i slow-motion
                    Gm
 när du går sönder inuti
    F              Eb
 så som jag gjorde nyss
Cm                     Gm               Eb
 Vad jag bryr mig om är att du kallar på mig
                   F                    Bb
 även om jag inte kommer tillbaka till dig 
 
VERSE
Bb
 Vad jag bryr mig om
                Dm
 är att höra dig andas
                 Gm
 veta att du är nära
    F         Eb
 förlåt, nu slutar jag 
Cm                     Gm               Eb
 Vad jag bryr mig om är att du kallar på mig 
               F                     Bb
 även om inte kommer tillbaks till dig 
 
Bb   Dm   Gm
 säg nånting
Bb         Eb
 säg nånting 
 
OUTRO
Cm                     Gm               Eb
 Vad jag bryr mig om är att du kallar på mig
                   F                    Bb
 även om jag inte kommer tillbaks till dig 
 
Bb Dm Gm Eb
 
Cm                     Gm               Eb
 Vad jag bryr mig om är att du kallar på mig
                   F                    Bb
 även om jag inte kommer tillbaks till dig
 
 
 
************************************
 
| b  Bend
| /  Slide up
| h  Hammer-on
| p  Pull-off
| ~  Vibrato
 
************************************

SEE ALSO: Our List Of Guitar Apps That Don't Suck

Latest Downloads That'll help you become a better guitarist

Your First Six Guitar Songs Cover Download Now
guitar fretboard notes print quality Download Now
Blank Guitar Chord Charts print quality Download Now
Guitar Chord Chart Download Now

Nailed It?

Great job! Let others know you're learning REAL music by sharing on social media!

Save This Song!

Enjoying Kärlek Är Ett Brev Skickat Tusen Gånger by Håkan Hellström? Bookmark the page to make it easier for you to find again!

Press Ctrl+D to bookmark this page

Håkan Hellström Fan?

We hope you enjoyed learning how to play Kärlek Är Ett Brev Skickat Tusen Gånger by Håkan Hellström on guitar. Don't stop now! There's loads more songs to learn by at Guvna Guitars!

Comments If you liked this tab or have something to share that'll make playing Kärlek Är Ett Brev Skickat Tusen Gånger better for others, let us all know in the comments below!

Your email address will not be published. Required fields are marked *

Submit Chords

Have a song you know the chords for that you'd like to share with others? Awesome! Submit it by clicking on the button below