La Cienega Chords & Lyrics Artist: , ,

Chords (click graphic to learn to play)

D sharp chord G sharp chord C Sharp chord F sharp chord A Sharp chord A chord Bm chord Cm chord C sharp minor chord D chord E chord F sharp minor chord
20% Off Guitar Tricks Full Access! when you use this link

How To Play

VERSE (NIKI)
A          F#m        D
  Empty bottles on the floor
A          F#m          D
  Party's over, thank the lord
A                         C#
  Watching these four walls 'round me shrinking
D                                 A    F#m    D
  It's so quiet, I can hear myself think  when
 
 
CHORUS (NIKI)
          Bm
Glitz and glamour on cam
        E
Singin' in La La Land
    A                     D C#m Cm
Accidentally made a name
        Bm
Pawn on every chess board
E
Used 'til they get bored
A
Smile when they yell, "Checkmate"
 
 
SOLO
 
D#|-------------------------------------------------------------|
A#|-------------------------------------------------------------|
F#|-------------------------------------------------------------| x2
C#|-------------------------------------------------------------|
G#|--------0--2------/4----0--2--0--------------0-------0---/4--|
D#|--0--2---------------------------2------0h2-----0h2----------|
 
D#|--------------|
A#|--------------|
F#|--------------|
C#|--------------|
G#|--------0--2--|
D#|--0--2--------|
 
 
VERSE (Joji)
A           F#m         D
  Lately I've been on my own (yeah, on my own, yeah yeah)
A                     F#m     D
  I knew you havin' fun with me (with me, with me, oh no)
A               F#m       D
  When I'm nearby, you'll know like, hold on
                 A             F#m                    D
And when will I see you? Yeah, yeah like, when will I see you? (Can you hear me loud and clear?)
 
[Chorus (NIKI)]
          Bm
Glitz and glamour on cam
        E
Singin' in La La Land
    A                     D C#m Cm
Accidentally made a name
        Bm
Pawn on every chess board
E
Used 'til they get bored
A
Smile when they yell, "Checkmate"
 
 
[Solo/Outro]
 
D#|-------------------------------------------------------------|
A#|-------------------------------------------------------------|
F#|-------------------------------------------------------------|   x2
C#|-------------------------------------------------------------|
G#|--------0--2------/4----0--2--0--------------0-------0---/4--|
D#|--0--2---------------------------2------0h2-----0h2----------|
 
D#|--------------5--|
A#|--------------5--|
F#|--------------6--|
C#|--------------7--|
G#|--------0--2--7--|
D#|--0--2--------5--|

SEE ALSO: Our List Of Guitar Apps That Don't Suck

Latest Downloads That'll help you become a better guitarist

Your First Six Guitar Songs Cover Download Now
guitar fretboard notes print quality Download Now
Blank Guitar Chord Charts print quality Download Now
Guitar Chord Chart Download Now

Nailed It?

Great job! Let others know you're learning REAL music by sharing on social media!

Save This Song!

Enjoying La Cienega by 88rising, Joji, NIKI? Bookmark the page to make it easier for you to find again!

Press Ctrl+D to bookmark this page

88rising, Joji, NIKI Fan?

We hope you enjoyed learning how to play La Cienega by 88rising, Joji, NIKI on guitar. Don't stop now! There's loads more songs to learn by , , at Guvna Guitars!

Comments If you liked this tab or have something to share that'll make playing La Cienega better for others, let us all know in the comments below!

Your email address will not be published. Required fields are marked *

Submit Chords

Have a song you know the chords for that you'd like to share with others? Awesome! Submit it by clicking on the button below