La Vie En Rose Chords & Lyrics Artist:

Chords (click graphic to learn to play)

A chord A7 chord Am chord Am7 chord B7 chord Bm chord C chord Cm chord D7 chord E chord E7 chord G chord G7 chord Em7 chord G6 chord E/G# chord
D7 over F Sharp chord
C6 chord Am6 chord Cm7 chord Cm9/D chord G7M chord A7sus4 chord
20% Off Guitar Tricks Full Access! when you use this link

How To Play

INTRO
                                                        G
e|------------------------------------------------------3--|
B|---3----3----3-2p3-2-3-4~-3---------------------------3--|
G|--4----4----4-----------------5----5----4----3----2---0--|
D|-5--5-4--4-3-----------------7----7----5----5----4----0--|
A|----------------------------7--7-6--6-5--5-4--4-3--3--2--|
E|------------------------------------------------------3--|
 
VERSE 1
D7/F# - 2xx21x
Bm    - x2323x
G#º   - 4x343x / xxx1x1
Am7   - 575555
D7    - x5453x
                                  E
Des yeux qui font baisser les miens
    Am                    D7/F#
Un rire qui se perd sur sa bouche
   G                    Bm    G#º
Voilà le portrait sans retouches
    Am7                  D7
De l'homme auquel j'appartiens
 
CHORUS 1
C6    - x3x2xx
Cm9/D - x5454x
 
G                          G7M
Quand il me prend dans ses bras
                    G7
Qu'il me parle tout bas
                  Am    D7
Je vois la vie en rose
Am                  D7
Il me dit des mots d'amour
                    Am
Des mots de tous les jours
     Em7  C6      D7            G  Cm9/D D7 Cm9/D D7
Mais moi... ça me fait quelque chose
 
CHORUS 2
G                    G7M
Il est entré dans mon cœur
                       G7
Une grande part de bonheur
                   C
Dont je connais la cause
 Cm7                   B7               E7
C'est lui pour moi, moi pour lui dans la vie
Am                             D7
Il me l'a dit, l'a juré pour la vie
G                    G7M
Et dès que je l'aperçois
A7sus4  A7       Am7
Alors je sens en moi
    D7          G
Mon cœur qui bat
 
VERSE 2
E/G# - 4x245x
Aº   - xx4545
G6   - xx5757
G#º  - xx6767
Bº   - xx9-10-9-10
C    - xx10-12-13-12
Am6  - xx10-11-12-14
 
       G                      E/G#
Des nuits d'amour à plus finir
             Am7                  A°
Un grand bonheur qui prend sa place
       Am6       G#°           B°
Des ennuis, des chagrins s'effacent
    C                     Am6
Heureux, heureux à en mourir
 
CHORUS 1
C6    - x3x2xx
Cm9/D - x5454x
 
G                          G7M
Quand il me prend dans ses bras
                    G7
Qu'il me parle tout bas
                  Am    D7
Je vois la vie en rose
Am                  D7
Il me dit des mots d'amour
                    Am
Des mots de tous les jours
     Em7  C6      D7            G  Cm9/D D7 Cm9/D D7
Mais moi... ça me fait quelque chose
 
CHORUS 2
G                    G7M
Il est entré dans mon cœur
                       G7
Une grande part de bonheur
                   C
Dont je connais la cause
 Cm7                   B7               E7
C'est lui pour moi, moi pour lui dans la vie
Am                             D7
Il me l'a dit, l'a juré pour la vie
G                    G7M
Et dès que je l'aperçois
A7sus4  A7       Am7
Alors je sens en moi
    D7          G   D7
Mon cœur qui bat
 
SOLO
G G7M G7 Am D7 Am D7 Am Em7 C6 D7 G Cm9/D D7
 
 
e|-----------------------0-2---------------------------9-7-8-----|
B|------------------0-1-2-3------3-----------------8-11-----9-10-|
G|---------------0-3--------4-2-2---------------6-9--------------|
D|--------------0-----------------4----------5-8-----------------|
A|------5~-3h5-2--------------------5-7--7--7--------------------|
E|-3-3-3---------------------------------------------------------|
 
e|------------------------------8---8--10-8-----------------|
B|---------6-7-6-5------10----10--10-------10---------------|
G|-7-9-----6-7-6-5-----9-----9---------------9------7-------|
D|----7-10---------7-10----10-----------------10-----9-8-7--|
A|----------------------------------------------8-9---------|
E|----------------------------------------------------------|
 
e|------14-12---------------------12-15-14--------------------------|
B|-12-13-----13-----------------14--------15-12-------12-15-12-13---|
G|-------------14----------12-15---------------12----------------14-|
D|--------------------11-14----------------------14-12--------------|
A|---------------15-12----------------------------------------------|
E|------------------------------------------------------------------|
 
e|-12-15-14-12-------|
B|------------15-12--|
G|-------------------|
D|-------------------|
A|-------------------|
E|-------------------|
 
G G7M G7 C Cm Bm E7 A7 Am7 D7
 
OUTRO
G                    G7M
Et dès que je l'aperçois
A7sus4      A           Am7
Alors je sens en moi
    D7
Mon cœur qui bat
 
e|----------2---------------------|
B|-------3-5-6~-3-5--------3-3x-3-|
G|--2-3-4------------3-4---4-4x-4-|
D|-5----------------5---5--5-5x-5-|
A|--------------------------------|
E|--------------------------------|

SEE ALSO: Our List Of Guitar Apps That Don't Suck

Latest Downloads That'll help you become a better guitarist

Your First Six Guitar Songs Cover Download Now
guitar fretboard notes print quality Download Now
Blank Guitar Chord Charts print quality Download Now
Guitar Chord Chart Download Now

Nailed It?

Great job! Let others know you're learning REAL music by sharing on social media!

Save This Song!

Enjoying La Vie En Rose by Zaz? Bookmark the page to make it easier for you to find again!

Press Ctrl+D to bookmark this page

Zaz Fan?

We hope you enjoyed learning how to play La Vie En Rose by Zaz on guitar. Don't stop now! There's loads more songs to learn by at Guvna Guitars!

Comments If you liked this tab or have something to share that'll make playing La Vie En Rose better for others, let us all know in the comments below!

Your email address will not be published. Required fields are marked *

Submit Chords

Have a song you know the chords for that you'd like to share with others? Awesome! Submit it by clicking on the button below