Life After Happily Ever After Finale (Rapunzel’s Tangled Adventure) Chords & Lyrics Artist:

Chords (click graphic to learn to play)

A chord Am chord Ab chord B chord Bb chord C chord Cm chord C over G chord D chord Dm chord Dm7 chord E chord Eb chord Em chord Ebm chord F chord F sharp chord G chord Fsus4 chord C Sharp chord Bsus4 chord F/C chord Bb/C chord Gsus4 chord E/G# chord Bb/F chord Gm7 chord C/E chord Ab/Eb chord
B over D Sharp chord
G/B chord Bmaj7 chord
F Sharp over A Sharp chord
Eb/G chord
F Sharp minor 7 chord
Aadd9 chord Csus2 chord
F#add9 chord
Fadd#11 chord F/A chord Fm/Ab chord Bbsus2 chord Csus4/Bb chord Bbsus2/C chord C7sus4 chord C7/E chord Csus4 chord Bb/Ab chord Cmin chord Ab/Bb chord Bb/Eb chord Ebadd#11 chord Bb/D chord F/Eb chord Bb/G chord Dm6 chord F#madd9 chord Ebm/Db chord Cm7b5 chord Bm6 chord C#/F# chord F#/E chord Badd9/D# chord E/D chord
20% Off Guitar Tricks Full Access! when you use this link

How To Play

INTRO
(Acoustic guitar, Capo on 5)
e|-3-------3-------------------------------|-3-------3-------------------------------|
B|-------1-------1-0-----------------------|-------1-------1-0-----------------------|
G|----0-------0------------0---------------|----0-------0------------0---------------|
D|-3-------2-------------0-----------------|-3-------2-------------0-----------------|
A|--------------------2--------------------|--------------------2--------------------|
E|-----------------3-----------------------|-----------------3-----------------------|
 
 
VERSE 1
e|-3-------3-------------------------------|-3-------3-------------------------------|
B|-------1-------1-0-----------------------|-------1-------1-0-----------------------|
G|----0-------0------------0-----0---------|----0-------0------------0-----0---------|
D|-3-------2-------------0----0------------|-3-------2-------------0----0------------|
A|--------------------2--------------------|--------------------2--------------------|
E|-----------------3-----------------------|-----------------3-----------------------|
 
e|-----------0-----0---2-----2---3-----3---|-----------------------------------------|
B|-3-----3-------1---------3---------0-----|-1-----1---3---------3---------3----3----|
G|-4---4-------0-----0---2-----2---0-------|-----0-----0---------2---------0----2----|
D|-4-4-----------------0-----------------0-|---2-----2-0---------4---------0----4----|
A|-2---------3-----------------------------|-0---------2---------0---------0----0----|
E|-------------------------------0---------|-----------------------------------------|
 
e|-1-------------------3-------------------|
B|-1---------3---------3-------------------|
G|-2---------0----0----0-------------------|
D|-3---------3----2----0-------------------|
A|-3-------------------3-------------------|
E|-1-------1-----------3-------------------|
 
 
INTRO
Bbsus2  F/A  C
Bbsus2  F/A  C
 
 
VERSE 1
        Bbsus2     F/A          C
Is this life after happily ever after?
        Bbsus2      F/A              C
Is this who I have always been meant to be?
      Em             F
I can tell now, I'm different somehow
     G            Am
Than what I was before
Dm                C/E             G    Gsus4  G  Bb    Csus4/Bb  Bb  Csus2
And maybe at last, this is really me
 
 
VERSE 2
      Bbsus2/C          F/C             C
After all that I've done, I've seen and been through
      Bbsus2/C         F/C               C
After all of the choices, both right and wrong
            Em                 F
Through the doubts, fears, the joys and the tears
    G                Am
All that and so much more
     Dm           C/E               Gsus4   G
I've somehow come back to where I belong
 
 
CHORUS
    C7sus4                  C7/E  F
And now there's no boundaries, no limits, no bars
Fm/Ab                    C/G
Now there's no tower, no wall
Bbsus2               F/A              Fm/Ab
Now life's wide open from here to the stars
        Dm           G            C   Csus4  C  F  G
And I'm happily ever after, after all
 
 
[Spoken Interlude]
C   Csus4     C     F  G
Ab    Bb/Ab    Eb/G  G/B  Cmin    F
Ab/Bb  Bb  Ab/Bb  Bb
Eb  Bb/Eb     Ab/Eb  Bb/Eb
Eb  Bb/Eb     Ab/Eb  Bb/Eb
Cm  Bb     Ab  Bb
Fsus4      F  N.C.
Bb  F/A     Eb/G  Bb/F
Ebadd#11  Eb     Bb/Eb  Eb
 Fsus4  N.C.
G    F/A  Bb  Eb  Bb/D  C
F    C/E    Dm7   Bb
F    Gm7    Csus4  C
 
 
OUTRO
F/Eb                     Bb/D
Somehow at last, we were all truly home
       Gm7           F/A
Living happily ever after
       Bb            F/A
Living happily ever after
Dm     Gm7
Living happily ever after
Bb/G   C/G  F   Fadd#11   Dm7   Dm6   Bbsus2  Bb  Bb/C  C
Af  -  ter  all
 
 
 
 
Bonus part from the ending of the TV show - Eugene Proposes to Rapunzel
(Capo on 2)
e|-------------5---------7-|-5-----------------------|
B|-3-----------------------|-------------3-------2/3-|
G|---------2-----------2---|---------0---------------|
D|-----4-----------2-------|-----0-------------------|
A|-5-----------4-----------|-2-----------------------|
E|-------------------------|-------------------------|
 
e|-----------------------3-|-0-----------------------|
B|-0-------2/3/7-----------|-------------------------|
G|---------0-----------0---|---------0---------------|
D|-----0-----------0-------|-----2-----------0---2---|
A|-------------------------|-3-----------0-----------|
E|-3-----------0-----------|-------------------------|
 
e|-------------------------|
B|-------------------------|
G|-2-----------------------|
D|-------------------------|
A|-------------------------|
E|-------------------------|
 
 
Chords for this part
 
E   B/D#   Add9/C#
A   F#madd9   D   Bsus4   B
E  E/G#  Aadd9    F#m7    Bsus4  B
E/G#    G
F#    Bmaj7
F#  F#/A#  Bmaj7
Ebm    Ebm/Db    Cm7b5    Bm6  C#
F#    C#/F#  F#
F#/E    F#/E
Badd9/D#    B/D#    D    D  E/D
F#    F#add9    F#    F#

SEE ALSO: Our List Of Guitar Apps That Don't Suck

Latest Downloads That'll help you become a better guitarist

Your First Six Guitar Songs Cover Download Now
guitar fretboard notes print quality Download Now
Blank Guitar Chord Charts print quality Download Now
Guitar Chord Chart Download Now

Nailed It?

Great job! Let others know you're learning REAL music by sharing on social media!

Save This Song!

Enjoying Life After Happily Ever After Finale (Rapunzel’s Tangled Adventure) by Zachary Levi? Bookmark the page to make it easier for you to find again!

Press Ctrl+D to bookmark this page

Zachary Levi Fan?

We hope you enjoyed learning how to play Life After Happily Ever After Finale (Rapunzel’s Tangled Adventure) by Zachary Levi on guitar. Don't stop now! There's loads more songs to learn by at Guvna Guitars!

Comments If you liked this tab or have something to share that'll make playing Life After Happily Ever After Finale (Rapunzel’s Tangled Adventure) better for others, let us all know in the comments below!

Your email address will not be published. Required fields are marked *

Submit Chords

Have a song you know the chords for that you'd like to share with others? Awesome! Submit it by clicking on the button below