Love Reign Oer Me Chords & Lyrics Artist:

Chords (click graphic to learn to play)

Ebm chord Bmaj7 chord Abm7 chord Ebm/Bb chord F#sus4/Ab chord Bb/Eb chord Bb chord Ebm7 chord Bbsus4 chord Bb7 chord F sharp chord Eb chord Ab/Eb chord
20% Off Guitar Tricks Full Access! when you use this link

How To Play

Capo: 1st fret

Piano intro for guitar
Eb||--------------------||
Bb||---10-----10--------||
Gb||.----9------9------.||
Db||.------7------7----.||
Ab||--------------------||
Eb||--------------------||
 
VERSE 1
     Ebmsus4                           Ebmsus4/Db
Only love can make it rain the way the beach is kissed by the sea
     Ebmsus4                                    Ebmsus4/Db
Only love can make it rain like the sweat of lovers laying in the fields
 
CHORUS
    Ebm7                          Bmaj7     Abm7
    Love,             reign o'er  me
Eb|-15-14-12--------------------|--------------------|
Bb|----------15-12--------------|--------------------|
Gb|----------------14-12-11-----|-9-7----------------|
Db|-----------------------------|------10-9-7--------|
Ab|-----------------------------|-------------10-9-7-|
Eb|-----------------------------|--------------------|
 
Ebm7             Bmaj7         Abm7        Ebm/Bb       Bbsus4  Bb  Bb7
Love, reign o'er me    Rain on me, rain on me
 
VERSE 2
     Ebmsus4                            Ebmsus4/Db
Only love can bring the rain that makes you yearn to the sky
     Ebmsus4                                    Ebmsus4/Db
Only love can bring the rain that falls like tears from on high
 
CHORUS
    Ebm7                          Bmaj7     Abm7
    Love,             reign o'er  me
Eb|-15-14-12--------------------|--------------------|
Bb|----------15-12--------------|--------------------|
Gb|----------------14-12-11-----|-9-7----------------|
Db|-----------------------------|------10-9-7--------|
Ab|-----------------------------|-------------10-9-7-|
Eb|-----------------------------|--------------------|
 
Ebm7             Bmaj7         Abm7        Ebm/Bb       Bbsus4  Bb  Bb7
Love, reign o'er me    Rain on me, rain on me
 
BRIDGE
F#     F#sus4/Ab
On the dry and dusty road
F#            F#sus4/Ab
The nights we spent apart alone
F#        F#sus4/Ab
I need to get back home
   Eb         Ab/Eb       Bb/Eb     Ab/Eb
To cool, cool rain
 
VERSE 3
I can't sleep and I lay and I think, the night is hot and black as ink
Oh, god, I need a drink of cool, cool rain
 
CHORUS
    Ebm7                          Bmaj7     Abm7
    Love,             reign o'er  me
Eb|-15-14-12--------------------|--------------------|
Bb|----------15-12--------------|--------------------|
Gb|----------------14-12-11-----|-9-7----------------|
Db|-----------------------------|------10-9-7--------|
Ab|-----------------------------|-------------10-9-7-|
Eb|-----------------------------|--------------------|
 
Ebm7             Bmaj7         Abm7        Ebm/Bb       Bbsus4  Bb  Bb7
Love, reign o'er me    Rain on me, rain on me
 
END
Bb  | Bb7 Bbsus4 | Bb | Bb7           | Ebm
                                        Love....

SEE ALSO: Our List Of Guitar Apps That Don't Suck

Latest Downloads That'll help you become a better guitarist

Your First Six Guitar Songs Cover Download Now
guitar fretboard notes print quality Download Now
Blank Guitar Chord Charts print quality Download Now
Guitar Chord Chart Download Now

Nailed It?

Great job! Let others know you're learning REAL music by sharing on social media!

Save This Song!

Enjoying Love Reign Oer Me by The Who? Bookmark the page to make it easier for you to find again!

Press Ctrl+D to bookmark this page

The Who Fan?

We hope you enjoyed learning how to play Love Reign Oer Me by The Who on guitar. Don't stop now! There's loads more songs to learn by at Guvna Guitars!

Comments If you liked this tab or have something to share that'll make playing Love Reign Oer Me better for others, let us all know in the comments below!

Your email address will not be published. Required fields are marked *

Submit Chords

Have a song you know the chords for that you'd like to share with others? Awesome! Submit it by clicking on the button below