Make Your Peace Chords, Guitar Tab, & Lyrics -

Chords

F Sharp 5 chord
B5 chord A5 chord D5 chord E5 chord

Tab

[Intro]
e|---------------------------------------------------------------------------------|
B|---------------------------------------------------------------------------------|
G|---------------------------------------------------------------------------------|
D|-4---4---2-4-2-4-----4---2-4-2-4-----4---2-4-2-4-----4---2-4-2-4-----4---2-4-2-4-|
A|-------4---------------4---------------4---------------4---------------4---------|
E|---------------------------------------------------------------------------------|
 
 
[Verse 1]
F#5
  There are river's running
B5
  Just for you and me
F#5
  In the darkest hours
B5
  Choices made to be
F#5
  I choose to pull my punches
A5
  Don't you test my conscience
B5
  You'll see, you'll see
 
 
[Chorus]
F#5                            F#5
  Cut your teeth and make your peace is what you asked for
F#5                            F#5
  Cut your teeth and make your peace is what you asked for
F#5                            F#5
  Cut your teeth and make your peace is what you asked for
F#5                            F#5
  Cut your teeth and make your peace is what you asked for
 
 
[Interlude]
e|---------------------------------|
B|---------------------------------|
G|---------------------------------|
D|-4---4---2-4-2-4-----4---2-4-2-4-|
A|-------4---------------4---------|
E|---------------------------------|
 
 
[Verse 2]
F#5
  Got a way of getting
B5
  What I want to see
F#5
  When you know I'm winning
B5
  You'll get over me
F#5
  All the trash your thinking
A5
  Don't you feel it sinking
B5
  You'll see, you'll see
 
 
[Chorus]
F#5                            F#5
  Cut your teeth and make your peace is what you asked for
F#5                            F#5
  Cut your teeth and make your peace is what you asked for
F#5                            F#5
  Cut your teeth and make your peace is what you asked for
F#5                            F#5
  Cut your teeth and make your peace is what you asked for
 
 
[Solo]
|B5 |   |D5 |E5 |  x4
 
 
[Interlude]
e|---------------------------------------------------------------------------------|
B|---------------------------------------------------------------------------------|
G|---------------------------------------------------------------------------------|
D|-4---4---2-4-2-4-----4---2-4-2-4-----4---2-4-2-4-----4---2-4-2-4-----4---2-4-2-4-|
A|-------4---------------4---------------4---------------4---------------4---------|
E|---------------------------------------------------------------------------------|
 
 
[Verse 3]
F#5
  All the bitter fighting
B5
  Makes no sense to me
F#5
  Were only talking circles
B5
  Loosing sympathy
F#5
  No time like the future
A5
  Make signs cause I need ya
B5
  You'll see, you'll see
 
 
[Verse 4]
F#5
  There are river's running
B5
  Just for you and me
F#5
  In the darkest hours
B5
  Choices made to be
F#5
  I choose to pull my punches
A5
  Don't you test my conscience
B5
  You'll see, you'll see
 
 
[Chorus]
F#5                            F#5
  Cut your teeth and make your peace is what you asked for
F#5                            F#5
  Cut your teeth and make your peace is what you asked for
F#5                            F#5
  Cut your teeth and make your peace is what you asked for
F#5                            F#5
  Cut your teeth and make your peace is what you asked for
 
F#5                            F#5
  Cut your teeth and make your peace is what you asked for
F#5                            F#5
  Cut your teeth and make your peace is what you asked for
F#5                            F#5
  Cut your teeth and make your peace is what you asked for
F#5                            F#5  N.C.
  Cut your teeth and make your peace is what you asked for
Want to get better at playing this? Over 1.79 million people across the world went from average to impressive fast when they took this online class (and it's free for 2 weeks)

Nailed It?

Great job! Let others know you're learning REAL music by sharing on social media!

Save This Tab!

Enjoying Make Your Peace by INXS? Bookmark the page to make it easier for you to find again!

Press Ctrl+D to bookmark this page

INXS Fan?

We hope you enjoyed learning how to play Make Your Peace by INXS. Don't stop now! There's loads more tabs by for you to learn at Guvna Guitars!

Comments If you liked this tab or have something to share that'll make playing Make Your Peace better for others, let us all know in the comments below!

Your email address will not be published.