Me Quedo Chords & Lyrics Artist: ,

Chords (click graphic to learn to play)

B chord C Sharp chord F sharp chord G sharp chord
A Sharp minor chord
G sharp chord
G Sharp 7 chord
F sharp chord C Sharp chord D chord
C Sharp 7 chord
20% Off Guitar Tricks Full Access! when you use this link

How To Play

you can play the intro from the chords played that way:
 
   F#(1)       C#(1)      B         C#     F#    G#     A#m   G#
 
e|-6--        -9--      -7--       -4--     -2--     -4--    -6--   -8--
B|-7--        -9--      -7--       -6--     -2--     -4--    -6--   -9--
G|-6--        -10-      -8--       -6--     -3--     -5--    -6--   -8--
D|-8--        -11-      -9--       -6--     -4--     -6--    -8--   -10-
A|-9--        -11-      -9--       -4--     -4--     -6--    -8--   -11-
E|-x--        -9--      -7--       -x--     -2--     -4--    -6--   -x--
 
 
 
INTRO
    F#(1)                      C#(1)                   B               C#(2)
e|6---6-6h7--6---------------------------------------------------------------------|
B|-7-7-7------7-----------9------9---9h11-9-------7---7-7h9--7--7h9----------------|
G|--6----------------------10--10-10-------10------8-8-8----------------6h8p6------|
D|---------------------------11---------------------9------------------------------|
A|---------------------------------------------------------------------------------|
E|---------------------------------------------------------------------------------|
 
      F#(1)                    C#(1)                  B                F#(1)          C#(2)
e|6---6-6h7--6----------9----9----9h11-9---------7---7---7h9-7----------6-----------4-----------|
B|-7-7-7------7----------9--9-9--9------9---------7-7-7-7-----7--------7-9-7p6-----6--7-6h7p6---|
G|--6---------------------10---10------------------8---8--------------6-----------6-------------|
D|----------------------------------------------------------------------------------------------|
A|----------------------------------------------------------------------------------------------|
E|----------------------------------------------------------------------------------------------|
 
      F#         G#             A#m
e|----2------------4------------6---6-----------|
B|---2-2h4p2------4-4h6p4------6---6--7-6-6h7p6-|
G|--3------------5------------6---6-------------|   x2
D|----------------------------------------------|
A|----------------------------------------------|
E|----------------------------------------------|
 
     F#(1)            G#(2)            A#m
e|----6------------------8----------------6---6-9-6-6h9p6--|
B|---7--7h9p7-----------9--9h11p9--------6---6-------------|
G|--6------------------8----------------6---6--------------|
D|---------------------------------------------------------|
A|---------------------------------------------------------|
E|---------------------------------------------------------|
 
 
VERSE 1
       A#m              G#7
Es tu rabia que domina tu actitud
     F#
Ese ego que me clava en una cruz
    G#                                 A#m
Tus labios gritan: "¡Sal de aquí!" y no te creo (¡Bonita!)
 
A#m
e|----6----6-----6-|
B|---6------6---6--|
G|--6--------6-6---|
D|-8----------8----|
A|-----------------|
E|-----------------|
 
   A#m                       G#7
De perfecto no me puedo encasillar
     F#
Me arrepiento del pasado y vo'a jurar
G#                                 A#m
No te he vuelto a ser infiel, deja tus celos
 
A#m
e|---6---6--|
B|----------|
G|--6---6---|
D|-8---8----|
A|----------|
E|----------|
 
G#                 F#
Convénceme que no es orgullo
      C#            A#m
Que no me amas y no hay fuego
   G#          F#
Háblame aunque sea con odio
          C#                 A#m               bass line: G|------------------|
Porque el coraje lo aniquilo con un beso                  D|------------------|  or A#m/C# - A#m/D# - A#m/F
                                                          A|--(1)--4---6---8--|
                                                          E|------------------|
 
BRIDGE
F#        C#
Me voy no queriendo                        G|------------|
            G#            C#               D|------------|
Pues, no es secreto que yo te quiero       A|--4---6---8-|  or C# - C#/D# - C#/F
                                           E|------------| 
F#             C#
Yo interpreto el silencio
       G#                   C#       C#7
Si en la puerta no veo tu impedimento
 
 
CHORUS
  F#                   C#
Yo me quedo, mami, yo me quedo
   F#       G#          A#m
Dame una miradita con deseo
    F#          G#           C#
Yo me quedo, ay, more, yo me quedo
      F#          G#       A#m
Si tú quieres, yo suspendo ese vuelo
 
 
INSTRUMENTAL
      B                         C#(1)
e|------------------------------------------------------|
B|-7---7---7---7h9-7------------------------------------|
G|--8-8-8-8-8-8---------10----10---10----10h11-10-------|   x2
D|---9---9---9-----------11-11-11-11-11-11--------------|
A|------------------------11----11-----11---------------|
E|------------------------------------------------------|
 
       B                          C#(1)
e|-7-----7-7-7h9-7-------------9-------9--9-9h11--9-----|
B|--7-7---8--------7-------------9--9---10---------9----|
G|---8-------------8--------------10----------------10--|   x2
D|------------------------------------------------------|
A|------------------------------------------------------|
E|------------------------------------------------------|
 
        B                         C#(1)
e|------------------------------------------------------|
B|------------------------------------------------------|
G|------------------------------------------------------|
D|------------------------------------------------------|
A|-------8-9-11-9-8----------------------9-11h13-11-----|
E|--9-11------------11-----------9-11-13----------------|
 
        B                         A#m
e|------------------------------------------------------|
B|------------------------------------------------------|
G|------------------------------------------------------|
D|------------------------------------------------------|
A|-------8-9-11-9-8-----------------6h8-----------------|
E|--9-11------------11-----------------8h9p8-8-6--------|
 
 
VERSE
G#                 F#
Convénceme que no es orgullo
      C#            A#m
Que no me amas y no hay fuego
   G#          F#
Pero háblame aunque sea con odio
          C#                 A#m
Porque el coraje lo aniquilo con un beso  
 
 
BRIDGE
F#        C#
Me voy no queriendo                        
            G#            C#
Pues, no es secreto que yo te quiero       
 
F#             C#
Yo interpreto el silencio
       G#                   C#       C#7
Si en la puerta no veo tu impedimento
 
 
CHORUS
  F#                   C#
Yo me quedo, mami, yo me quedo
   F#       G#          A#m
Dame una miradita con deseo
    F#          G#           C#
Yo me quedo, ay, more, yo me quedo
      F#          G#       A#m
Si tú quieres, yo suspendo ese vuelo
 
 
INSTRUMENTAL
        B                         C#(1)
e|------------------------------------------------------|
B|------------------------------------------------------|
G|------------------------------------------------------|    x2
D|------------------------------------------------------|
A|-------8-9-11-9-8----------------------9-11h13-11-----|
E|--9-11------------11-----------9-11-13----------------|
 
        B                                               C#(1)
e|--7h9---7h9---7h9---------------------------------9h11---9h11---9h11----------------------------|
B|-----7-----7-----7-----7-7-7h9---7-7h9p7--------------9------9------9---9-9-9h11---9-9h11p9-----|
G|------------------------------8---------(8)-------------------------------------10---------(10)-|
D|------------------------------------------------------------------------------------------------|
A|------------------------------------------------------------------------------------------------|
E|------------------------------------------------------------------------------------------------|
 
        B                                               C#(1)
e|--7h9---7h9---7h9---------------------------------9h11---9h11---9h11--------------------|
B|-----7-----7-----7-----7-7-7h9---7-7h9p7--------------9------9------9---9-9-9h11--9h11--|
G|------------------------------8---------(8)-------------------------------------10------|
D|----------------------------------------------------------------------------------------|
A|----------------------------------------------------------------------------------------|
E|----------------------------------------------------------------------------------------|
 
        B                                               C#(1)
e|--7-7-11-9-11-9-11--7-7-7h9-7---------------------9-9-9-----9--------------------|
B|-7-----------------7--------------------------9-9--9-9---9-9-9h11-9--------------|
G|--------------------------------------------10---------10------------------------|  x2
D|---------------------------------------------------------------------------------|
A|---------------------------------------------------------------------------------|
E|---------------------------------------------------------------------------------|
 
        B                                               C#(1)
e|--7-7-11-9-11-7--7-7-11-9-11-7--------------------9-9-9-----9-9-9----------------|
B|-7--------------7-----------------------------9-9--9-9---9-9-9-9-----------------|
G|--------------------------------------------10---------10------------------------|
D|---------------------------------------------------------------------------------|
A|---------------------------------------------------------------------------------|
E|---------------------------------------------------------------------------------|
 
       B                  F#(1)                 C#(2)
e|----7----------7----------6-----------6--------4----------4------4---------------|
B|----7---7-----7-----------7---7------7---------6----4----6-------6---------------|
G|----8--8-----8------------6--6------6----------6---6----6--------6---------------|
D|-----------------------------------------------------------------6---------------|
A|-----------------------------------------------------------------4---------------|
E|-----------------------------------------------------------------x---------------|
 
 
CHORUS
  F#                   C#
Yo me quedo, mami, yo me quedo
             F#        G#          A#m
Y te canto serenatas en las mañanas, al despertar
    F#          G#           C#
Yo me quedo, ay, more, yo me quedo
      F#          G#       A#m
Con mi guitarra te imploro, no me dejes marchar
  F#                    C#
Yo me quedo, mami, yo me quedo
     F#        G#          A#m
No permitas que tu enfado me haga un desaire
     F#          G#          C#
Yo me quedo, ay, more, yo me quedo
 
              F#                     G#                  C#
Pero si es tu decisión que yo me vaya, me destroza este final
 
 
 
 
************************************
 
| x    Dead note
| h    Hammer-on
| p    Pull-off
| (n)  Ghost note
| /    Slide up
| \    Slide down
 
************************************

SEE ALSO: Our List Of Guitar Apps That Don't Suck

Latest Downloads That'll help you become a better guitarist

Your First Six Guitar Songs Cover Download Now
guitar fretboard notes print quality Download Now
Blank Guitar Chord Charts print quality Download Now
Guitar Chord Chart Download Now

Nailed It?

Great job! Let others know you're learning REAL music by sharing on social media!

Save This Song!

Enjoying Me Quedo by Romeo Santos, Zacarias Ferreira? Bookmark the page to make it easier for you to find again!

Press Ctrl+D to bookmark this page

Romeo Santos, Zacarias Ferreira Fan?

We hope you enjoyed learning how to play Me Quedo by Romeo Santos, Zacarias Ferreira on guitar. Don't stop now! There's loads more songs to learn by , at Guvna Guitars!

Comments If you liked this tab or have something to share that'll make playing Me Quedo better for others, let us all know in the comments below!

Your email address will not be published. Required fields are marked *

Submit Chords

Have a song you know the chords for that you'd like to share with others? Awesome! Submit it by clicking on the button below