Milkman’s Son Chords & Lyrics Artist:

Chords (click graphic to learn to play)

D5 chord E5 chord A5 chord B5 chord Bmaj chord Emaj chord Amaj chord
20% Off Guitar Tricks Full Access! when you use this link

How To Play

INTRO
 
Eb:|------------------|------------------|---------------------0---|
Bb:|------------------|------------------|-4--5^4----2--3^2----0---|
Gb:|--4------2--------|--4------2--------|-4---------2---------1---|
Db:|--4------2--2-----|--4------2--2-----|-4---------2---------2---|
Ab:|--2------0--2-----|--2------0--2-----|-2---------0---------2---|
Eb:|------------0-----|------------0-----|---------------------0---|
 
 
Eb:|-----------------------------|-----------------------------|
Bb:|-----------------------------|-----------------------------|
Gb:|----------------7------------|----------------7------------|
Db:|----------------7----7-7-2---|----------------7-----7--7---|
Ab:|--7-7-----------5----7-7-2---|--7-7-----------5-----7--7---|
Eb:|--5-5--7^6^7--0----0-5-5-0---|--5-5--7^6^7--0-----0-5--5---|
      PM                            PM
 
Eb:|-----------------------------|-----------------------------|
Bb:|-----------------------------|-----------------------------|
Gb:|----------------7------------|----------------7--------9---|
Db:|----------------7----7-7-2---|----------------7--------9---|
Ab:|--7-7-----------5----7-7-2---|--7-7-----------5--------7---|
Eb:|--5-5--7^6^7--0----0-5-5-0---|--5-5--7^6^7--0-----0-0------|
      PM                            PM
 
 
VERSE 1
 
B5                              D5      A5
        Let the burning bridges tumble down,
B5                              D5      A5
        Let the water come and flood the ground,
Bmaj                            Amaj        Emaj
        Burn a hole into this auburn sky, I only wanna be walking, by your side.
 
 
 
CHORUS
 
B5                        A5  E5
When I see tomorrow I see you there,
B5                        A5  E5
When I look around I see you everywhere,
        Bmaj            Amaj                Emaj
Your face is etched into my mind, when it's all said and done, I'm feeling like the milkman's son.
 
 
 
VERSE 2
 
B5                              D5      A5
        Let your darkest spirits fly away,
B5                              D5      A5
        Come again but you won't come today,
Bmaj                            Amaj                Emaj
        Spend the last days of my worthless life, I only wanna be walking, by your side.
 
 
 
************************************
 
| PM  Palm mute

SEE ALSO: Our List Of Guitar Apps That Don't Suck

Latest Downloads That'll help you become a better guitarist

Your First Six Guitar Songs Cover Download Now
guitar fretboard notes print quality Download Now
Blank Guitar Chord Charts print quality Download Now
Guitar Chord Chart Download Now

Nailed It?

Great job! Let others know you're learning REAL music by sharing on social media!

Save This Song!

Enjoying Milkman’s Son by Ugly Kid Joe? Bookmark the page to make it easier for you to find again!

Press Ctrl+D to bookmark this page

Ugly Kid Joe Fan?

We hope you enjoyed learning how to play Milkman’s Son by Ugly Kid Joe on guitar. Don't stop now! There's loads more songs to learn by at Guvna Guitars!

Comments If you liked this tab or have something to share that'll make playing Milkman’s Son better for others, let us all know in the comments below!

Your email address will not be published. Required fields are marked *

Submit Chords

Have a song you know the chords for that you'd like to share with others? Awesome! Submit it by clicking on the button below