No Fun Chords & Lyrics Artist:

Chords (click graphic to learn to play)

E chord G sharp minor chord C sharp minor chord G chord G/F# chord
F Sharp minor 7 chord
D chord
G Sharp minor 7 chord
C Sharp minor 7 chord
20% Off Guitar Tricks Full Access! when you use this link

How To Play

INTRO
e|--------------------------------------------------------------------|
B|--------------------------------------------------------------------|
G|--------------------------------------------------------------------|
D|--------------------------------------------------------------------|
A|----------------------------2----2-/4----4--4-----------------------|
E|-0----0--0----0--0-/4--4----------------------------3-3-3-3-3-3-3-3-|
 
e|--------------------------------------------------------------------|
B|--------------------------------------------------------------------|
G|--------------------------------------------------------------------|
D|--------------------------------------------------------------------|
A|----------------------------2----2-/4----4--4-----------------------|
E|-0----0--0----0--0-/4--4----------------------------3-3-3-3-2-2-2-2-|
 
VERSE 1
E               G#m             C#m       G
  I feel like I may have been here before
E                 G#m    C#m  G G/F#
  All of it looks so familiar
E               G#m       C#m    G
  I wanna see beyond the obvious
E                  G#m     C#m   G G/F#
  So show me a new constellation
 
CHORUS
E G#m       C#m  G         E     G#m
Ay! You're no fun, you're no fun
           C#m  G           G/F#
You're a song I never wanna hear again!
E G#m       C#m  G         E     G#m
Ay! You're no fun, you're no fun
           C#m  G           G/F#
You're a song I never wanna hear again!
 
INTERLUDE
Whoa! Whoa! Whoa!
e|--------------------------------------------------------------------|
B|--------------------------------------------------------------------|
G|--------------------------------------------------------------------|
D|--------------------------------------------------------------------|
A|----------------------------2----2-/4----4--4-----------------------|
E|-0----0--0----0--0-/4--4----------------------------3-3-3-3-3-3-3-3-|
 
e|--------------------------------------------------------------------|
B|--------------------------------------------------------------------|
G|--------------------------------------------------------------------|
D|--------------------------------------------------------------------|
A|----------------------------2----2-/4----4--4-----------------------|
E|-0----0--0----0--0-/4--4----------------------------3-3-3-3-2-2-2-2-|
 
VERSE 2
E                   G#m        C#m        G
  I feel like I'm always the last to know
E                        G#m      C#m   G G/F#
  The king of the dunces and the idiots
E                         G#m         C#m       G
  But where is the bliss in all this ignorance?
  E                    G#m     C#m   G G/F#
Oh, just show me a new constellation
 
CHORUS
E G#m       C#m  G         E     G#m
Ay! You're no fun, you're no fun
           C#m  G           G/F#
You're a song I never wanna hear again!
E G#m       C#m  G         E     G#m
Ay! You're no fun, you're no fun
           C#m  G           G/F#
You're a song I never wanna hear again!
 
BRIDGE
F#m7 D
       Never again...
F#m7 D
       Never again...
F#m7 D             F#m7 D
       Never again...
F#m7
Don't you get it?
D                         F#m7
  I only want to break your spell
D
  Ohh oh ohhh
F#m7
Don't you get it?
D                              F#m7
  You're the snake that eats its tail
 
CHORUS
N.C.
Hey! You're no fun, you're no fun
N.C.
You're a song I never wanna hear again!
E G#m       C#m  G         E     G#m
Hey! You're no fun, you're no fun
           C#m  G           G/F#
You're a song I never wanna hear again!
 
OUTRO
E G#m7 C#m7
Ay! Whoa!
G   E G#m7 C#m7 G
  Whoa! Whoa!
 
(He he he why man? Heheheh... aw)

SEE ALSO: Our List Of Guitar Apps That Don't Suck

Latest Downloads That'll help you become a better guitarist

Your First Six Guitar Songs Cover Download Now
guitar fretboard notes print quality Download Now
Blank Guitar Chord Charts print quality Download Now
Guitar Chord Chart Download Now

Nailed It?

Great job! Let others know you're learning REAL music by sharing on social media!

Save This Song!

Enjoying No Fun by Incubus? Bookmark the page to make it easier for you to find again!

Press Ctrl+D to bookmark this page

Incubus Fan?

We hope you enjoyed learning how to play No Fun by Incubus on guitar. Don't stop now! There's loads more songs to learn by at Guvna Guitars!

Comments If you liked this tab or have something to share that'll make playing No Fun better for others, let us all know in the comments below!

Your email address will not be published. Required fields are marked *

Submit Chords

Have a song you know the chords for that you'd like to share with others? Awesome! Submit it by clicking on the button below