Not Your Savior Chords & Lyrics Artist: ,

Chords (click graphic to learn to play)

C chord Em chord F chord G chord Dm chord C over B chord Am chord Asus2 chord D chord Fm chord
20% Off Guitar Tricks Full Access! when you use this link

How To Play

- Intro:
 
    C                     Em                    F                     G
e|-----------------------------------------------------------------------------------------|
B|-888-----888-----88----888-----888-----88----666-----666-----66----888-----888-----88----|
G|-----555-----555----55-----444-----444----44-----222-----222----22-----444-----444----44-|
D|-----------------------------------------------------------------------------------------|
A|-----------------------------------------------------------------------------------------|
E|-----------------------------------------------------------------------------------------|
 
    C                     Em                    F                     G                     C
e|-----------------------------------------------------------------------------------------|
B|-888-----888-----88----888-----888-----88----666-----666-----66----888-----888-----88----|
G|-----555-----555----55-----444-----444----44-----222-----222----22-----444-----444----44-|
D|-----------------------------------------------------------------------------------------|
A|-----------------------------------------------------------------------------------------|
E|-----------------------------------------------------------------------------------------|
 
 
 
- Verse 1:
 
       Dm        C C/B                    C          C/B   Am
Unlucky seventeen, already handed plans for the future
G       F                    G                       C
Glamour obsessed, told how to dress, and shown how to think
            Dm         C C/B                      C        C/B   Am
And I don't have a job, but I can show you how to be a slob
G       F                 G
So many days, wasted and glazed
            Am    Asus2    F
Sometimes I laugh aloud as I think about,
   C                              D
You asking me "Please can you help?"
           F        G
Can't help my self
 
 
 
- Chorus:
 
                  C                  G
I'm not your savior, I'm not who you want me to be
  F                                  G                         C
A cowardly mistake I've made so many times before, refusing to break
              Em                        F                     Fm
Cut my losses ties them with you, like a good boy I'll pretend
Fm
And promise not to do it again
 
 
 
 
- Post-Chorus: C C/B Am G F G
               C C
 
 
 
- Verse 2:
 
       Dm          C C/B                   C         C/B    Am
Do you remember when,  life was so simple and permanent?
G          F                   G                    Am
Everyone's changed, "Everyone's cool", Everyone sucks
    Asus2   F                C                                 D
But I can't seem to complain, Exciting and new is just not there
                F      G
You're getting scared
 
 
 
- Chorus:
 
             C                      G
I'm not your savior, never thought I was anyway
      F                             G
I'm a void with empty promises that backs out late
               C                       Em
Never said I'd change, taking back the words that we spoke
       F                     Fm
Like a fuel tank running dry, you'll believe it when I choke
 
 
 
- Ending: C Em F G                             C  Em F G    C Em F G (until fades)
                    you'll believe it when I choke

SEE ALSO: Our List Of Guitar Apps That Don't Suck

Latest Downloads That'll help you become a better guitarist

Your First Six Guitar Songs Cover Download Now
guitar fretboard notes print quality Download Now
Blank Guitar Chord Charts print quality Download Now
Guitar Chord Chart Download Now

Nailed It?

Great job! Let others know you're learning REAL music by sharing on social media!

Save This Song!

Enjoying Not Your Savior by Joey Cape, Tony Sly? Bookmark the page to make it easier for you to find again!

Press Ctrl+D to bookmark this page

Joey Cape, Tony Sly Fan?

We hope you enjoyed learning how to play Not Your Savior by Joey Cape, Tony Sly on guitar. Don't stop now! There's loads more songs to learn by , at Guvna Guitars!

Comments If you liked this tab or have something to share that'll make playing Not Your Savior better for others, let us all know in the comments below!

Your email address will not be published. Required fields are marked *

Submit Chords

Have a song you know the chords for that you'd like to share with others? Awesome! Submit it by clicking on the button below