Nothin New Under The Neon Chords & Lyrics Artist:

Chords (click graphic to learn to play)

D chord Bsus2 chord Bm chord G chord G6/B chord A chord Dmaj7 chord Em chord
20% Off Guitar Tricks Full Access! when you use this link

How To Play

************************************
 
| h   Hammer-on
| \   Slide down
 
************************************
 
INTRO
e|---------------|
B|---------------|
G|---------------|
D|---------------| x3
A|------5--7\9---|
E|--5h7----------|
 
e|---------------|
B|---------------|
G|---------------|
D|--7------------|
A|---------------|
E|----7----------|
 
e|---------------|
B|---------------|
G|---------------|
D|---------------| x3
A|------5--7\9---|
E|--5h7----------|
 
e|---------------|
B|---------------|
G|---------------|
D|--7------------|
A|---------------|
E|----7----------|
 
VERSE 1
D               Bsus2
You can't say I didn't warn ya
         Bm                D          G
When you chased her out to California
                  D                   G6/B    A
Then she went and married someone else
D                       A
It don't  really matter where you been
Bm                    D
We always pick back up again
G        D                G6/B    A
Make our way on down that shelf
 
 
CHORUS
        D   Dmaj7       G6/B
Nothin' new under the neon
         A
Same old stories, girls and glory
                 D   Dmaj7         G6/B
And the same old blue buzz that we lean on
               A
Just drinking down loving
Em                     A         D
Life ain't nothing new under the neon
 
[Riff]
e|---------------|
B|---------------|
G|---------------|
D|---------------| x3
A|------5--7\9---|
E|--5h7----------|
 
e|---------------|
B|---------------|
G|---------------|
D|--7------------|
A|---------------|
E|----7----------|
 
e|---------------|
B|---------------|
G|---------------|
D|---------------| x3
A|------5--7\9---|
E|--5h7----------|
 
e|---------------|
B|---------------|
G|---------------|
D|--7------------|
A|---------------|
E|----7----------|
 
VERSE 2
D                   A
Remember when you'd lost your father
Bm                    D
We blew threw a couple hundred dollars
G                       D                 G6/B    A
Missing him, reminiscing him, toasting his name
D            Bsus2                   Bm                 D
Never saw my name in lights, but I still play here on Friday nights
G      D                 Em      A
I guess somethings never change
 
 
CHORUS
        D   Dmaj7       G6/B
Nothin' new under the neon
         A
Same old stories, girls and glory
                 D   Dmaj7         G6/B
And the same old blue buzz that we lean on
               A
Just drinking down loving
Em                     A         D   Dmaj7   G6/b
Life ain't nothing new under the neon
 
D                    Bsus2
Who knows when we'll be back here
Bm               D
How many miles, how many years
G6/B                  D         G               A
How many laughs, how many beers we've both been through?
 
 
CHORUS
        D   Dmaj7       G6/B   Em
Nothin' new under the neon
         A
Same old stories, girls and glory
                 D   Dmaj7         G6/B
And the same old blue buzz that we lean on
               A
Just drinking down loving
Em                     A         D
Life ain't nothing new under the neon
 
[Riff]
e|---------------|
B|---------------|
G|---------------|
D|---------------| x3
A|------5--7\9---|
E|--5h7----------|
 
e|---------------|
B|---------------|
G|---------------|
D|--7------------|
A|---------------|
E|----7----------|
 
e|---------------|
B|---------------|
G|---------------|
D|---------------| x3
A|------5--7\9---|
E|--5h7----------|
 
e|---------------|
B|---------------|
G|---------------|
D|--7------------|
A|---------------|
E|----7----------|
 
           D       G6/B    Em    G6/B    Em
Under the neon

SEE ALSO: Our List Of Guitar Apps That Don't Suck

Latest Downloads That'll help you become a better guitarist

Your First Six Guitar Songs Cover Download Now
guitar fretboard notes print quality Download Now
Blank Guitar Chord Charts print quality Download Now
Guitar Chord Chart Download Now

Nailed It?

Great job! Let others know you're learning REAL music by sharing on social media!

Save This Song!

Enjoying Nothin New Under The Neon by Midland? Bookmark the page to make it easier for you to find again!

Press Ctrl+D to bookmark this page

Midland Fan?

We hope you enjoyed learning how to play Nothin New Under The Neon by Midland on guitar. Don't stop now! There's loads more songs to learn by at Guvna Guitars!

Comments If you liked this tab or have something to share that'll make playing Nothin New Under The Neon better for others, let us all know in the comments below!

Your email address will not be published. Required fields are marked *

Submit Chords

Have a song you know the chords for that you'd like to share with others? Awesome! Submit it by clicking on the button below