Plug In Baby Chords & Lyrics Artist:

Chords (click graphic to learn to play)

G chord D chord F sharp chord Bm chord
20% Off Guitar Tricks Full Access! when you use this link

How To Play

[Riff]
 
e|---------------------------2h3p2-------------------------------------|
B|----------------3-----3-5--------5-3---------------5-----5-7^8^7-6-7-|
G|---3-4-6--3-4-6---4-6---------------6--4-6-7--4-6-7--6-7-------------|
D|---------------------------------------------------------------------|
A|---------------------------------------------------------------------|
E|---------------------------------------------------------------------|
 
e|---------------------------------------------------------------------|
B|---7--------7--9^10^9-7-6-7------------------------------------------|
G|----7-7---7-----------------7---7------------------------------------|
D|-------6-7--------------------7--------------------------------------|
A|---------------------------------------------------------------------|
E|---------------------------------------------------------------------|
 
VERSE 1
G                     D      F#
 I've exposed your lies, baby
                     G
The underneath is no big surprise
             D             F#
Now it's time for changing
               G
And cleansing everything
               D
To forget your love
 
Bm
(palm mute)
 
CHORUS
G                Bm
  My plug in baby
D           G
Crucifies my enemies
                     Bm   D
When I'm tired of giving
G                 Bm
  My plug in baby
D                        G
In unbroken virgin realities
              Bm  D
Is tired of living
 
[Riff]
 
e|---------------------------2h3p2-------------------------------------|
B|----------------3-----3-5--------5-3---------------5-----5-7^8^7-6-7-|
G|---3-4-6--3-4-6---4-6---------------6--4-6-7--4-6-7--6-7-------------|
D|---------------------------------------------------------------------|
A|---------------------------------------------------------------------|
E|---------------------------------------------------------------------|
 
e|---------------------------------------------------------------------|
B|---7--------7--9^10^9-7-6-7------------------------------------------|
G|----7-7---7-----------------7---7------------------------------------|
D|-------6-7--------------------7--------------------------------------|
A|---------------------------------------------------------------------|
E|---------------------------------------------------------------------|
 
VERSE 2
G          D
 Don't confuse
             F#
Baby you're gonna lose
         G
Your own game
D        F#
 Change me
                 G
And replace the envying
                D
To forget your love
 
CHORUS
G                Bm
  My plug in baby
D           G
Crucifies my enemies
                     Bm D
When I'm tired of giving
G                 Bm
  My plug in baby
     D                    G
In unbroken virgin realities
            Bm   D
Is tired of living

SEE ALSO: Our List Of Guitar Apps That Don't Suck

Latest Downloads That'll help you become a better guitarist

Your First Six Guitar Songs Cover Download Now
guitar fretboard notes print quality Download Now
Blank Guitar Chord Charts print quality Download Now
Guitar Chord Chart Download Now

Nailed It?

Great job! Let others know you're learning REAL music by sharing on social media!

Save This Song!

Enjoying Plug In Baby by Muse? Bookmark the page to make it easier for you to find again!

Press Ctrl+D to bookmark this page

Muse Fan?

We hope you enjoyed learning how to play Plug In Baby by Muse on guitar. Don't stop now! There's loads more songs to learn by at Guvna Guitars!

Comments If you liked this tab or have something to share that'll make playing Plug In Baby better for others, let us all know in the comments below!

Your email address will not be published. Required fields are marked *

Submit Chords

Have a song you know the chords for that you'd like to share with others? Awesome! Submit it by clicking on the button below