Pretty Boy Chords & Lyrics Artist:

Chords (click graphic to learn to play)

F Sharp minor 7 chord
E chord Dmaj7 chord C sharp minor chord F sharp minor chord F#m/E chord D chord A over C Sharp chord E/A chord F#m7/E chord B5 chord
20% Off Guitar Tricks Full Access! when you use this link

How To Play

capo: 1st  fret
play: D
key: Eb
 
For original chords transpose this tab +1
 
---------------------------------------------------------------------------
 
 INTERLUDE
  F#m7             E  Dmaj7         C#m              F#m        F#m/E
  1 + 2 + 3 + 4 +  1 + 2 + 3 + 4 +  1 + 2 + 3 + 4 +  1 + 2 +
 3 + 4 +
e|--5-5-5-5-5-5-5-|45p42---------0-|02p0------------|----------------|
B|--5-5-5-5-5-5-5-|5---2-----------|0---2---------0-2p0--------------|
G|----------------|----------------|----------------|----2-----------|
D|4---------------|----0-----------|----------------|4-------4-------|
A|----------------|----------------|4---------------|----------------|
E|----------------|0---------------|----------------|------------0---|
  D      A/C#     E/A Dmaj7         C#m              F#m        F#m/E
  1 + 2 + 3 + 4 +  1 + 2 + 3 + 4 +  1 + 2 + 3 + 4 +  1 + 2 + 3 + 4 +
e|--5-5-5-5-5-5-5-|45p42---------0-|02p0------------|----------------|
B|--5-5-5-5-5-5-5-|5---2-----------|0---2---------0-2p0--------------|
G|----------------|----------------|----------------|----2-----------|
D|0---------------|----0-----------|----------------|4---------------|
A|----0-2-4]------|0---------------|4---------------|----------------|
E|-[0-------------|----------------|----------------|------------0---|
 
 
[Interlude 2]
  F#m7
  1 + 2 + 3 + 4 +  1 + 2 + 3 + 4 +  1 + 2 + 3 + 4 +  1 + 2 + 3 + 4 +
e|--5-5-5-5-5-5-5-|5-5-5-5-5-5-5-5-|5-5-5-5-5-5-5-5-|5-5-5-5-5-5-5-5-|
B|--5-5-5-5-5-5-5-|5-5-5-5-5-5-5-5-|5-5-5-5-5-5-5-5-|5-5-5-5-5-5-5-5-|
G|----------------|----------------|----------------|----------------|
D|----------------|--------------0-|----------------|------------0---|
A|----------------|------------4---|----------------|--------------4-|
E|----------------|----------------|------2---------|----------------|
  F#m7
  1 + 2 + 3 + 4 +  1 + 2 + 3 + 4 +  1 + 2 + 3 + 4 +  1 + 2 + 3 + 4 +
e|5-5-5-5-5-5-5-5-|5-5-5-5-5-5-5-5-|5-5-5-5-5-5-5-5-|5-5-5-5-5-5-5-5-|
B|5-5-5-5-5-5-5-5-|5-5-5-5-5-5-5-5-|5-5-5-5-5-5-5-5-|5-5-5-5-5-5-5-5-|
G|----------------|----------------|----------------|----------------|
D|----------------|--------------0-|----------------|------------0---|
A|----------------|------------4---|----------------|--------------4-|
E|------2---------|----------------|-------2--------|----------------|
  F#m7                          F#m7/E
  1 + 2 + 3 + 4 +  1 + 2 + 3 + 4 +
e|5-5-5-5-5-5-5-5-|5-5-5-5-5-5-5-5-|
B|5-5-5-5-5-5-5-5-|5-5-5-5-5-5-5-5-|
G|----------------|----------------|
D|----------------|----------------|
A|----------------|----------------|
E|------2---------|--------------0-|
 
 
---------------------------------------------------------------------------
 
[Intro}
| D | % | % | % |
 
 VERSE 1
D
 Have we got a tough guy here?
D                          F#m              [ F#m/E D ]
   Have we got a tough guy from the street?
D
  He look just like that dancing wop
D                             F#m       [ F#m/E D ]
   In those movies that we've seen
D         E                        F#m       [ F#m/E D ]
 With his cute little chicken shit boots on
D        E                       F#m       [ F#m/E D ]
 And his cute little chicken shit hat
D        E                        B5
 And his cute little chicken shit girlfriends
        D       E
Ridin' along in back
 
[Interlude 1]
| F#m | E Dmaj7     | C#m | F#m      F#m/E |
| D A/C# | E/A Dmaj7     | C#m | F#m      F#m/E |
 
VERSE 2
D
 What's been happening with you boys?
D                             F#m           [ F#m/E D ]
   Are you having a nice time on your trip?
D
  All the way from Jersey City
D                       F#m       [ F#m/E D ]
   You look pretty as a picture
D             E             F#m       [ F#m/E D ]
 Please don't hurt no one tonight
D             E        F#m             [ F#m/E D ]
 Please don't break no woman's heart
D    E                   F#m            [ F#m/E D ]
       How 'bout it, you little prick?
D    E              [ F#m ]
       How 'bout it?
 
[Interlude 2]
| F#m7 | % | % | % |
| F#m7 | % | D | % | % | % |
 
VERSE 3
D
 Hope we're gonna get the chance
D               F#m        [ F#m/E D ]
   To show you 'round
D
  Hope we're gonna get the chance
D               F#m        [ F#m/E D ]
   To show you 'round
D    E                  F#m            [ F#m/E D ]
      Talk tough to me, pretty boy
D         E                  F#m            [ F#m/E D ]
  Tell us all about the mean streets of home
 
| D E | F#m |
 
D      E              |  F#m  | F#m
  Talk tough to me

SEE ALSO: Our List Of Guitar Apps That Don't Suck

Latest Downloads That'll help you become a better guitarist

Your First Six Guitar Songs Cover Download Now
guitar fretboard notes print quality Download Now
Blank Guitar Chord Charts print quality Download Now
Guitar Chord Chart Download Now

Nailed It?

Great job! Let others know you're learning REAL music by sharing on social media!

Save This Song!

Enjoying Pretty Boy by Pretty Boy? Bookmark the page to make it easier for you to find again!

Press Ctrl+D to bookmark this page

Pretty Boy Fan?

We hope you enjoyed learning how to play Pretty Boy by Pretty Boy on guitar. Don't stop now! There's loads more songs to learn by at Guvna Guitars!

Comments If you liked this tab or have something to share that'll make playing Pretty Boy better for others, let us all know in the comments below!

Your email address will not be published. Required fields are marked *

Submit Chords

Have a song you know the chords for that you'd like to share with others? Awesome! Submit it by clicking on the button below