Pretty Girls Chords & Lyrics Artist:

Chords (click graphic to learn to play)

Am6 chord C6 chord F chord G chord G sharp chord Am chord C chord C7 chord Bbmaj7 chord E7 chord Em chord
20% Off Guitar Tricks Full Access! when you use this link

How To Play

Capo:1st fret

Am6 004210
C6 032210
F(#11) 13320x
 
INTRO
 
(basic rhythm)
         F                               G
e |------1---1-1---------1---1-1---------3---3-3---------3---3-3---|
B |------1---3-1---------1---3-1---------3---5-3---------3---5-3---|
G |------2---2-2---------2---2-2---------4---4-4---------4---4-4---|
D |------3---1-3---------3---1-3---------5---3-5---------5---3-5---|
A |------3---3-3---------3---3-3---------5---5-5---------5---5-5---|
E |0-1---1---1-1---0-1---1---1-1---2-3---3---3-3---2-3---3---3-3---| x3
 
[lead, second bar]
         F                           G
e |--3---1-----------3---1---0-------------------------------------|
B |----------------------------3-----3-----------------------------|
G |-----------------------------'-----------------------------------|
D |--------------------------------------5-------------------------|
A |----------------------------------------------------------------|
E |----------------------------------------------------------------|
 
[lead, third bar]
         F                           G
e |------1------1---0----------------------------------------------|
B |---------------------3---1--------3-----------------------------|
G |----------2-----------------2-----------------------------------|
D |--------------------------------------5-------------------------|
A |----------------------------------------------------------------|
E |----------------------------------------------------------------|
 
G G#
 
VERSE 1
Am                        Am6                    F F(#11) F
He's triggered by the rise of their suburban eyes
F F(#11) F
Am                         Am6                   F F(#11) F
He likes to stroke the curls of pretty baby girls
F F(#11) F
    C             C7             C6               Bbmaj7
And he will never make it on the hit parade, oh no
  C                C7                 C6
Behind the counter selling health and beauty aids
F           E7
In the name of
 
{Chorus 1]
F                             G
(intro rhythm)
Pretty girls, so pretty girls look good on you
      F                             G
Those pretty girls, So pretty girls look good on you
 
POST CHORUS 1
   F                                 G
e |------1-------1---0-----------------------|
B |--------------------3---1---------3-------|
G |----------2---------------2---------------|
D |--------------------------------------5---|
A |------------------------------------------|
E |------------------------------------------|
 
VERSE 2
             Am        Am6           F F(#11) F
Reserves the luxury of feline company
F F(#11) F
         Am                     Am6                     F F(#11) F
Femme fatale is all he needs to measure his heroic deeds
F F(#11) F
   C           C7             C6           Bbmaj7
Another trying day behind the canopy of lust
     C             C7                       C6
He's nurtured by a planned, well tanned philosophy
F            E7
For the love of
 
{Chorus 2]
F                   F                 G          G
Pretty girls, those pretty girls look good on you
F                   F                 G          G
Pretty girls, those pretty girls look good on you
 
BRIDGE
 
   Am        Em         F                        G
e |5-----7-8-7-----8-10-8-----------8-12-13-12---3-|
B |------------------------------10----------------|
G |------------------------------------------------|
D |------------------------------------------------|
A |------------------------------------------------|
E |------------------------------------------------|
   Am        Em         F                        G
e |5-----7-8-7---7---------------------------------|
B |----------------10-8-10-----10------------------|
G |---------------------------------9--------------|
D |------------------------------------------------|
A |------------------------------------------------|
E |------------------------------------------------|
  Am                         Em                F
I told you that he'd get you right between the eyes
F             E7
For the love of
 
OUTRO
F                  F                 G          G
pretty girls those pretty girls look good on you...

SEE ALSO: Our List Of Guitar Apps That Don't Suck

Latest Downloads That'll help you become a better guitarist

Your First Six Guitar Songs Cover Download Now
guitar fretboard notes print quality Download Now
Blank Guitar Chord Charts print quality Download Now
Guitar Chord Chart Download Now

Nailed It?

Great job! Let others know you're learning REAL music by sharing on social media!

Save This Song!

Enjoying Pretty Girls by Melissa Manchester? Bookmark the page to make it easier for you to find again!

Press Ctrl+D to bookmark this page

Melissa Manchester Fan?

We hope you enjoyed learning how to play Pretty Girls by Melissa Manchester on guitar. Don't stop now! There's loads more songs to learn by at Guvna Guitars!

Comments If you liked this tab or have something to share that'll make playing Pretty Girls better for others, let us all know in the comments below!

Your email address will not be published. Required fields are marked *

Submit Chords

Have a song you know the chords for that you'd like to share with others? Awesome! Submit it by clicking on the button below