Ritual Spirit Chords & Lyrics Artist: ,

Chords (click graphic to learn to play)

Dm chord Bb chord Bb/D chord Gm chord Bb/F chord
20% Off Guitar Tricks Full Access! when you use this link

How To Play

[Intro Riff]
            Dm              Bb
e|--5-----5--------5-------6---------6--------6--------------|
B|------6-------6-----------------6--------6-----------------|
G|----7------7-------7--------7---------7--------7-----------|x2
D|-----------------------------------------------------------|
A|-----------------------------------------------------------|
E|-----------------------------------------------------------|
 
 
INTRO
Dm  Bb
 
 
VERSE
Dm               Bb/D
Who'll mend this broke beat star
Dm                  Bb
Who’s strength do I speak of
              Gm
Climbing deep burning
            Bb/F
Climbing deeper
              Dm
Kinda deep burning
 
 
[Intro Riff]
            Dm              Bb
e|--5-----5--------5-------6---------6--------6--------------|
B|------6-------6-----------------6--------6-----------------|
G|----7------7-------7--------7---------7--------7-----------|x2
D|-----------------------------------------------------------|
A|-----------------------------------------------------------|
E|-----------------------------------------------------------|
 
 
VERSE
Dm                 Bb/D
Who's words that I spoke now storm
Dm            Bb
I keep it turning
                    Gm
It's Climbing deep burning
            Bb/F
Climbing deeper
           Dm
Kinda deeper
 
 
CHORUS
   Bb          Gm
Climbing deep burning
           Bb/F
Climbing deeper
             Dm
Kinda deep burning
 
 
[Intro Riff]
            Dm              Bb
e|--5-----5--------5-------6---------6--------6--------------|
B|------6-------6-----------------6--------6-----------------|
G|----7------7-------7--------7---------7--------7-----------|x2
D|-----------------------------------------------------------|
A|-----------------------------------------------------------|
E|-----------------------------------------------------------|
 
 
VERSE
Dm                 Bb/D
Who'll mend this broke beat star
Dm            Bb
Who’s strength do I sleep on
              Gm
Climbing deep burning
            Bb/F
Climbing deeper
           Dm
Kinda deep burning                                 
Dm                 Bb/D
Who'll mend this broke beat star
Dm            Bb
Who’s strength do I speak of
              Gm
Climbing deep burning
            Bb/F
Climbing deeper
           Dm
Kinda deep burning
 
 
OUTRO
         Bb
Kinda deeper                                    
           Dm
Climbing deeper
          Bb
Kinda deeper
            Dm
Climbing deeper
           Bb
Kinda deeper
             Dm
Climbing deeper
           Bb
Kinda deeper
             Dm
Climbing deeper
                   Bb       Dm
Climbing deep burning     

SEE ALSO: Our List Of Guitar Apps That Don't Suck

Latest Downloads That'll help you become a better guitarist

Your First Six Guitar Songs Cover Download Now
guitar fretboard notes print quality Download Now
Blank Guitar Chord Charts print quality Download Now
Guitar Chord Chart Download Now

Nailed It?

Great job! Let others know you're learning REAL music by sharing on social media!

Save This Song!

Enjoying Ritual Spirit by Azekel, Massive Attack? Bookmark the page to make it easier for you to find again!

Press Ctrl+D to bookmark this page

Azekel, Massive Attack Fan?

We hope you enjoyed learning how to play Ritual Spirit by Azekel, Massive Attack on guitar. Don't stop now! There's loads more songs to learn by , at Guvna Guitars!

Comments If you liked this tab or have something to share that'll make playing Ritual Spirit better for others, let us all know in the comments below!

Your email address will not be published. Required fields are marked *

Submit Chords

Have a song you know the chords for that you'd like to share with others? Awesome! Submit it by clicking on the button below