Sacrifice Chords & Lyrics Artist:

Chords (click graphic to learn to play)

Am chord C chord F chord G chord A5 chord C5 chord D5 chord G5 chord
20% Off Guitar Tricks Full Access! when you use this link

How To Play

INTRO
 
e|---7-------------7---------------------------------------------------------|
B|-----8-10----------8--8-10-------------------------------------------------|
G|-9--------9----9-----------9-----------------------------------------------|
D|--------------------------------7-5----------------------------------------|
A|---------------------------------------------------------------------------|
E|---------------------------------------------------------------------------|
 
e|---7-------------7---------------------------------------------------------|
B|-----8-10----------8--8-10-------------------------------------------------|
G|-9--------9----9-----------9-----------------------------------------------|
D|--------------------------------10-9---------------------------------------|
A|---------------------------------------------------------------------------|
E|---------------------------------------------------------------------------|
 
Am               C
These things are eventual
    F                    G
And I can't be too careful
Am                   C
There's nothing more gradual
     F                   G
Than what I choose to show
Am                           C
And you've been patient with me, alright
F                       G
But does that end tonight?
 
        A5       C5       D5
I will brave any trial by fire
A5       C5      D5
But I'm just not ready
A5       C5     D5        G5
To fall through your thin ice
A5           C5        D5
I'll explain myself in time
A5       C5      D5
But I'm just not ready
A5      C5   D5      G5
To make that sacrifice
 
C5
But I'm trying like I said I might
 
Am                C
These things are unusual for me
F             G
I should explain
Am             C
No mind should have ever dreamt
F                     G
Of such fictitious pain
 
Am                 C
There's a story in there somewhere
F                     G
But I'm not sure you care
 
 
        A5       C5       D5
I will brave any trial by fire
A5       C5      D5
But I'm just not ready
A5       C5     D5        G5
To fall through your thin ice
A5           C5        D5
I'll explain myself in time
A5       C5      D5
But I'm just not ready
A5      C5   D5      G
To make that sacrifice
 
 G                               C
But I'm trying like I said I might
                              F
But I don't trust this exercise
                                 C
But I'm trying like I said I might
 
C           F                         C
I might, I might trust it this one time (x4)
 
G                             C
But I don't trust this exercise
 
Am                 C
There's a story in there somewhere
F                     G
But I'm not sure you care
 
 
        A5       C5       D5
I will brave any trial by fire
A5       C5      D5
But I'm just not ready
A5       C5     D5        G5
To fall through your thin ice
A5           C5        D5
I'll explain myself in time
A5       C5      D5
But I'm just not ready
A5      C5   D5      G5
To make that sacrifice
 
A5      C5    D5
But I'm trying (Trying like I said I might)
A5      C5    D5
Just like I said I might (Trying like I said I might)
      A5        C5  D5
Yeah, I'm trying (But I don't trust this exercise)
A5        C5     D5     G5
Just like I said I might (Just like I said I might)
G                        Am
I'm trying like I said I might
 
(The Rhythm Guitar do this in the intro and between the chorus to verse)
 
  PM......................................................................
e|---------------------------------------------------------------------------|
B|---------------------------------------------------------------------------|
G|----9---9---9---9---9---9---9---9---9---9---9------------------------------|
D|--7---7---7---7---7---7---7---7---7---7---7--------------------------------|
A|---------------------------------------------------------------------------|
E|---------------------------------------------------------------------------|

SEE ALSO: Our List Of Guitar Apps That Don't Suck

Latest Downloads That'll help you become a better guitarist

Your First Six Guitar Songs Cover Download Now
guitar fretboard notes print quality Download Now
Blank Guitar Chord Charts print quality Download Now
Guitar Chord Chart Download Now

Nailed It?

Great job! Let others know you're learning REAL music by sharing on social media!

Save This Song!

Enjoying Sacrifice by Finger Eleven? Bookmark the page to make it easier for you to find again!

Press Ctrl+D to bookmark this page

Finger Eleven Fan?

We hope you enjoyed learning how to play Sacrifice by Finger Eleven on guitar. Don't stop now! There's loads more songs to learn by at Guvna Guitars!

Comments If you liked this tab or have something to share that'll make playing Sacrifice better for others, let us all know in the comments below!

Your email address will not be published. Required fields are marked *

Submit Chords

Have a song you know the chords for that you'd like to share with others? Awesome! Submit it by clicking on the button below