Satellite Chords & Lyrics Artist:

Chords (click graphic to learn to play)

G7/D chord C chord F chord Em chord G chord Am chord
20% Off Guitar Tricks Full Access! when you use this link

How To Play

[Chord legend]
G7/D : 320031
 
INTRO
   C        G7/D       C        G7/D
e|-0-------|---------|-0-------|---------| x2
B|-----1---|-3---1-3-|-----1---|-3-------|
G|---------|---------|---------|---------|
D|---------|---------|---------|---------|
A|---------|---------|---------|---------|
E|---------|---------|---------|---------|
 
 
VERSE 1
      F             G7/D
If I told you (if I told you)
               Em                      F
Everything we built will slowly fade away
      F             G7/D
If I hold you (if I hold you)
        Em                       F
I swear everything I touch, it breaks
             F                 G7/D
But if you close your eyes and take my hand
          Em                F
We could learn from our mistakes
      F        G7/D
If I jump, you follow
      F        G7/D
If I jump, you follow
 
INTERLUDE
   C        G7/D       C        G7/D
e|-0-------|---------|-0-------|---------|
B|-----1---|-3---1-3-|-----1---|-3-------|
G|---------|---------|---------|---------|
D|---------|---------|---------|---------|
A|---------|---------|---------|---------|
E|---------|---------|---------|---------|
 
 
VERSE 2
      F             G7/D
If I told you (if I told you)
                   Em              F
Everything that’s gold is sure to fade
      F             G7/D
If I hold you (if I hold you)
      Em                         F
If I hold you til we’re old and gray
             F                 G7/D
But if you close your eyes and take my hand
          Em                F
We could learn from our mistakes
      F        G7/D
If I jump, you follow
        F      G7/D
If you jump, I follow
 
 
CHORUS
          F    G          Am                       F
We could fly away, set a course straight into the sun
            F   G              Am                     F
And take a holiday, stake our claim up there in the stars
    F   G         Em              F
So fly high like diamonds in the sky
 F     G       Am
Burn bright my satellite
 
 
INTERLUDE
   C        G7/D       C        G7/D
e|-0-------|---------|-0-------|---------| x2
B|-----1---|-3---1-3-|-----1---|-3-------|
G|---------|---------|---------|---------|
D|---------|---------|---------|---------|
A|---------|---------|---------|---------|
E|---------|---------|---------|---------|
 
 
VERSE 3
             F               G7/D
I dreamed of airplanes (on a jetway)
 Em                  F
Poised to take you away
           F                   G7/D
So when I tell you (I won’t mislead you)
           Em                       F
I stayed grounded when you needed space
             F                 G7/D
But if you close your eyes and take my hand
          Em                F
We could learn from our mistakes
        F      G7/D
If you jump, I follow
      F        G7/D
If I jump, you follow
 
 
CHORUS
          F    G          Am                       F
We could fly away, set a course straight into the sun
            F   G              Am                     F
And take a holiday, stake our claim up there in the stars
    F   G         Em              F
So fly high like diamonds in the sky
 F     G       Am
Burn bright my satellite
 
 
SOLO
   Am       G7/D       F         F
e|-0-------|---------|---------|---------|
B|---3-1-3-|---1-----|---1-----|---------|
G|---------|-----2-0-|-2---2-0-|-2-------|
D|---------|---------|---------|---------|
A|---------|---------|---------|---------|
E|---------|---------|---------|---------|
 
   Am       G7/D       Am       Gf/D
e|-0-------|---------|-0-------|---------|
B|---3-1-3-|---1-----|---3-1-3-|---1-----|
G|---------|-----2---|---------|-----2---|
D|---------|---------|---------|---------|
A|---------|---------|---------|---------|
E|---------|---------|---------|---------|
 
 
CHORUS
          F    G          Am                       F
We could fly away, set a course straight into the sun
            F   G              Am                     F
And take a holiday, stake our claim up there in the stars
    F   G         Em              F
So fly high like diamonds in the sky
 F     G       Am
Burn bright my satellite
 
 
OUTRO
    F   G         Em              F
So fly high like diamonds in the sky
 F     G       Am
Burn bright my satellite
    F
My satellite.

SEE ALSO: Our List Of Guitar Apps That Don't Suck

Latest Downloads That'll help you become a better guitarist

Your First Six Guitar Songs Cover Download Now
guitar fretboard notes print quality Download Now
Blank Guitar Chord Charts print quality Download Now
Guitar Chord Chart Download Now

Nailed It?

Great job! Let others know you're learning REAL music by sharing on social media!

Save This Song!

Enjoying Satellite by Mayday Parade? Bookmark the page to make it easier for you to find again!

Press Ctrl+D to bookmark this page

Mayday Parade Fan?

We hope you enjoyed learning how to play Satellite by Mayday Parade on guitar. Don't stop now! There's loads more songs to learn by at Guvna Guitars!

Comments If you liked this tab or have something to share that'll make playing Satellite better for others, let us all know in the comments below!

Your email address will not be published. Required fields are marked *

Submit Chords

Have a song you know the chords for that you'd like to share with others? Awesome! Submit it by clicking on the button below