Satellite Hotel Chords & Lyrics Artist:

Chords (click graphic to learn to play)

Am chord G chord F chord D chord C chord
20% Off Guitar Tricks Full Access! when you use this link

How To Play

Flat tune
 
Intro
       Am      |G        |F       |D       |Am     |G      |F    |D    ||
------|--------|---------|--------|--------|-------|------|------|-----|
------|--------|---------|--------|--------|5------|-----8|------|-----|
------|5~------|5h7------|5~------|--------|5---(9)|rb7---|5-----|-----|
-0h5h7|--------|----0h5h7|---0h5h7|---0h5h7|-------|------|------|-----|
------|--------|---------|--------|5-------|-------|------|---12\|5----|
------|--------|---------|--------|--------|-------|------|------|-----|
 
Verse 1
Am         G                 F                D
 She won't recognize as I'm walking right on by
Am                     G                 F              D
'Cause I'm slick like that when I don't wanna go for a ride
Am              G              F           D
 I'll pass the neon sign says Satellite Hotel
Am                        G                    F             D
 There's a good place to sit and stare at the wall all by myself
 
 
Chorus
             N.C.            Am        G                 D
When there isn't anything I want there isn't anything I need
                 Am        G         F
I would not give up for a minute of peace
      G                  Am     C                D
Just waiting here for a sign I never said I was sad
                   Am             C      G
Some days you just want to drink by yourself
 
 
Verse 2
Am              G               F              D
 Livin' like a rodeo when the show goes every night
Am                G                  F                 D
 Never hold back tears or sweat and blood and that's alright
Am           G                  F                      D
 Everyone's heading home but tonight we'll drive like hell
Am                    G                     F           D
 To the next stop my headphones on singing no way to myself
 
 
Chorus
             N.C.            Am        G                 D
When there isn't anything I want there isn't anything I need
                 Am        G         F
I would not give up for a minute of peace
      G                  Am     C                D
Just waiting here for a sign I never said I was sad
                   Am             C      G
Some days you just want to drink by yourself
 
 
 
Solo
 Am          |C                  |D           |                     |
-------------|-------------------|------------|---------------------|
-5-----------|---5---------------|------------|---------------------|
-7b9~--------|7b9-7b9-7b9-7b9-7b9|9rb7~-------|----------5-5--------|
-------------|------.---.---.---.|------------|5------5-------7~--7/|
-------------|-------------------|------------|-7-5-7---7-----------|
-------------|-------------------|------------|---------------------|
 
 Am                  |C           D |            |                          |
---------------------|--------------|------------|--------------------------|
------13----------13-|---13—12h13---|----12b13---|--------------------------|
--------14--—12h14—14|-14--14----14~|---------14~|14-12--12-----------------|
---------------------|--------------|------------|-----14--14-12-14-12--12--|
-14-14---------------|--------------|------------|--------------------14----|
---------------------|--------------|------------|--------------------------|
---------------------|--------------|------------|--------------------------|
 
 Am                  |C                    G |          |          ||
------17----17-------|-----------------------|----------|----------|
-20b22—20b22—20b22~--|20-17------------------|----------|----------|
---------------------|-----19-17--17-19b21\12|----------|----------|
---------------------|----------19-----------|----------|----------|
---------------------|-----------------------|----------|----------|
---------------------|-----------------------|----------|----------|
 
 
Verse 3
Am       G                     F                 D
 Morning comes around and the road still on for miles
Am                    G            F          D       N.C.
 The whole world's asleep and baby I'm doing fine
 
 
Chorus
                             Am        G                 D
When there isn't anything I want there isn't anything I need
                 Am        G         F
I would not give up for a minute of peace
      G                  Am     C                D
Just waiting here for a sign I never said I was sad
                   Am             C      D
Some days you just want to drink by yourself
 
                             Am   G   D
When there isn't anything I want
                             Am   C   D
When there isn't anything I need
                             Am         C                 D
When there isn't anything I want, there isn't anything I need

SEE ALSO: Our List Of Guitar Apps That Don't Suck

Latest Downloads That'll help you become a better guitarist

Your First Six Guitar Songs Cover Download Now
guitar fretboard notes print quality Download Now
Blank Guitar Chord Charts print quality Download Now
Guitar Chord Chart Download Now

Nailed It?

Great job! Let others know you're learning REAL music by sharing on social media!

Save This Song!

Enjoying Satellite Hotel by One Bad Son? Bookmark the page to make it easier for you to find again!

Press Ctrl+D to bookmark this page

One Bad Son Fan?

We hope you enjoyed learning how to play Satellite Hotel by One Bad Son on guitar. Don't stop now! There's loads more songs to learn by at Guvna Guitars!

Comments If you liked this tab or have something to share that'll make playing Satellite Hotel better for others, let us all know in the comments below!

Your email address will not be published. Required fields are marked *

Submit Chords

Have a song you know the chords for that you'd like to share with others? Awesome! Submit it by clicking on the button below