Second Hand Heart Chords & Lyrics Artist:

Chords (click graphic to learn to play)

A chord Am chord Am7 chord Bb chord D chord Dsus4 chord Em chord G chord Em7 chord
F Sharp 5 chord
Am/D chord
20% Off Guitar Tricks Full Access! when you use this link

How To Play

INTRO
G Em Am Dsus4
G Em Am Dsus4
G Em Am Am/D G
 
CHORUS
G             Em     Am         Dsus4
Does anybody need a second hand heart
G              Em     Am         Dsus4
It's only been used a time or two
G             Em     Am             Dsus4
Just a little love, you can sure fix it up
G                   Em          Am  Am/D    G
And this second hand heart will work like new
 
VERSE 1
G             Em         Am            Dsus4
She took my heart and she wore it all around
G                Em         Am            Dsus4
Well, she got tired of me, that's why she put me down
G              Em          Am       Dsus4
Like an oldest car in a bargain store
G            Em            Am   Am/D    G
She treated me like she didn't care no more
 
CHORUS
G              Em     Am             Dsus4
I wander does anybody need a second hand heart
G              Em     Am         Dsus4
It's only been used a time or two
G             Em     Am             Dsus4
Just a little love, you can sure fix it up
G                   Em          Am  Am/D    G
And this second hand heart will work like new
 
SOLO
                   ↓                                ↓  ↓  ↑  ↑
e|-----------3--3--3-------|------------------------3--3--x--x--------|
B|-----------------0-------|------------------------0--0--0--0--------|
G|--------0--------0-------|---------------------0--0--0--0--0--------|
D|------0----------0-------|-------------------0----0--0--0--0--------|
A|----2------------2-------|------2-2/5------2------2--2--2--2--------|
E|--3--------------3-------|--0-2----------3--------3--3--3--3--------|
    G              G                       G        G  G  G  G
 
     ↓    ↓    ↓    ↓          ↑                     ↓       ↓      ↓
e|---2----1----3----0-------|--3---------------3--3--x-------0------2--|
B|---3----3----0----2-------|--0---------------------x-------1------3--|
G|---2----3----0----2-------|--0------------0--------x-------0------2--|
D|---0----3----0----2-------|--0----------0----------4-------2------0--|
A|---x----1----2----0-------|--2--------2------------4-------0------x--|
E|---x----x----3----x-------|--3------3--------------2-------x------x--|
     D    Bb   G    A          G      G             F#5     Am7     D
 
    ↓     ↓     ↓     ↑
e|--3-----0-----0-----3----|
B|--0-----3-----1-----0----|
G|--0-----0-----0-----0----|
D|--0-----2-----2-----0----|
A|--2-----2-----0-----2----|
E|--3-----0-----x-----3----|
    G    Em7   Am7    G
 
VERSE 2
G         Em    Am         Dsus4
I know it might look like a steal
G       Em    Am                  Dsus4
But I'm not trying to pull affairs deal
G           Em    Am                  Dsus4
I know it's been wrecked a few times before
G        Em  Am                  Dsus4
But this old heart can love once more
 
CHORUS
G             Em     Am         Dsus4
Does anybody need a second hand heart
G              Em     Am         Dsus4
It's only been used a time or two
G             Em     Am             Dsus4
Just a little love, you can sure fix it up
G                   Em          Am  Am/D    G
And this second hand heart will work like new
G             Em     Am         Dsus4
Does anybody need a second hand heart
G              Em     Am         Dsus4
It's only been used a time or two
G             Em     Am             Dsus4
Just a little love, you can sure fix it up
G                   Em          Am  Am/D    G
And this second hand heart will work like new
 

SEE ALSO: Our List Of Guitar Apps That Don't Suck

Latest Downloads That'll help you become a better guitarist

Your First Six Guitar Songs Cover Download Now
guitar fretboard notes print quality Download Now
Blank Guitar Chord Charts print quality Download Now
Guitar Chord Chart Download Now

Nailed It?

Great job! Let others know you're learning REAL music by sharing on social media!

Save This Song!

Enjoying Second Hand Heart by Bobby “Blue” Bland? Bookmark the page to make it easier for you to find again!

Press Ctrl+D to bookmark this page

Bobby “Blue” Bland Fan?

We hope you enjoyed learning how to play Second Hand Heart by Bobby “Blue” Bland on guitar. Don't stop now! There's loads more songs to learn by at Guvna Guitars!

Comments If you liked this tab or have something to share that'll make playing Second Hand Heart better for others, let us all know in the comments below!

Your email address will not be published. Required fields are marked *

Submit Chords

Have a song you know the chords for that you'd like to share with others? Awesome! Submit it by clicking on the button below