Si Je Perds Chords & Lyrics Artist:

Chords (click graphic to learn to play)

A chord Bm chord Em chord F sharp chord G chord F sharp minor chord A over C Sharp chord Em7 chord Bm/F# chord G-5 chord
20% Off Guitar Tricks Full Access! when you use this link

How To Play

INTRO
 
e|---2---2---3-----|-----------------|---2---2---3-----|-----------------|
B|---3---3---3---2-|---2---2---2---2-|---3---3---3---2-|---2---2---------|
G|---4---4---4---2-|---2---2---0---3-|---4---4---4---2-|---2---2---------|
D|-----4---5-----2-|---2---2---0---4-|-----4---5-----2-|---2---2-2-------|
A|-2-----------4---|-0---4-----------|-2-----------4---|-0---4-----------|
E|-----------------|---------3---2---|-----------------|-----------------|
   1 + 2 + 3 + 4 +   1 + 2 + 3 + 4 +   1 + 2 + 3 + 4 +   1 + 2 + 3 + 4 +
   Bm      G   A/C#  A       G-5 F#    Bm      G   A/C#  A
 
 
[1ER COUPLET]
Bm            G
   Je me sens brocante
A             G-5     F#
   Je suis la méchante
Bm          G
   Si mes enfants m'invitent
A             G-5    F#
   Je fais la pas content
 
G
   Et quand ils me visitent
F#m
   Je suis la transparente
 
 
[2EME COUPLET]
Bm            G
   Je me sens palote
A        G          F#
   Je me sens lotte
Bm             G
   Les enfants me nettoient
      A        G           F#
   Des inconnus me sortent
 
G
   A croire quand je me vois
       A
   Que je suis déjà morte
 
 
[1ER REFRAIN]
Bm
   Si je perds la mémoire, faudrait pas s'inquiéter
A
   C'est que ma vie est au soir d'une triste journée
Em7
   Si je perds la raison, faudrait pas s'en vouloir
G-5                             F#m             F#
   Si c'est plus ma maison, lais - sez moi dans le couloir
Bm
   Si je perds les pédales et si ça vous inquiète
A
   Si ça vous fait trop mal, je ne sais plus qui vous êtes
Em7
   Et si je perds la boule, n'ayez pas trop pitié
G-5                     Bm/F#           F#m
   Ma tête est une foule     de visages ou - bliés
 
 
INTERLUDE
 
e|---2---2---3-----|-----------------|---2---2---3-----|-----------------|
B|---3---3---3---2-|---2---2---2---2-|---3---3---3---2-|---2---2---------|
G|---4---4---4---2-|---2---2---0---3-|---4---4---4---2-|---2---2---------|
D|-----4---5-----2-|---2---2---0---4-|-----4---5-----2-|---2---2-2-------|
A|-2-----------4---|-0---4-----------|-2-----------4---|-0---4-----------|
E|-----------------|---------3---2---|-----------------|-----------------|
   1 + 2 + 3 + 4 +   1 + 2 + 3 + 4 +   1 + 2 + 3 + 4 +   1 + 2 + 3 + 4 +
   Bm      G   A/C#  A       G-5 F#    Bm      G   A/C#  A
 
 
[3EME COUPLET]
Bm            G
   Je me sens friperie
A             G       F#
   Je me fais momie
Bm             G
   Mes enfants me déplacent
A                 G   F#
   Comme un vieux manuscrit
 
G
   Et j'ai le feuilles qui cassent
F#m
   Et je suis mal écrit
 
 
[4EME COUPLET]
Bm            G
   Je me sens bizarre
A            G        F#
   Je me vis trop tard
Bm             G
   Si je pense aux instants
A               G      F#
   Où j'ai fait sans savoir
 
G
   La course avec le temps
A
   Sans me dire au revoir
 
 
[2EME REFRAIN]
Bm
   Si je perds la mémoire, faudrait pas s'inquiéter
A
   C'est que ma vie est au soir d'une triste journée
Em7
   Si je perds la raison, faudrait pas s'en vouloir
G-5                              A
   Si c'est plus ma maison, lais - sez moi dans le couloir
Bm
   Si je perds les pédales et si ça vous inquiète
A
   Si ça vous fait trop mal, je ne sais plus qui vous êtes
Em7
   Et si je perds la boule, n'ayez pas trop pitié
G-5                     F#m
   Ma tête est une foule   de visages oubliés
 
 
[SOLO DE PIANO]
Bm | | A |     |
Em | | G | F#m |
 
 
[3EME REFRAIN]
Bm
   Si je perds la mémoire, faudrait pas s'inquiéter
A
   C'est que ma vie est au soir d'une triste journée
Em7
   Si je perds la raison, faudrait pas s'en vouloir
G-5                             F#m
   Si c'est plus ma maison, lais - sez moi dans le couloir
Bm
   Si je perds les pédales et si ça vous inquiète
A
   Si ça vous fait trop mal, je ne sais plus qui vous êtes
Em7
   Et si je perds la tête, n'ayez pas trop pitié
G                          Bm/F#                F#m
   Bientôt je serai bête et     vous aurez oublié
 
 
OUTRO
 
(ritardando)
e|---2---2---3-----|-----------------|---2---2---3-----|-----------------|------|
B|---3---3---3---2-|---2---2---2---2-|---3---3---3---2-|---2---2---------|------|
G|---4---4---4---2-|---2---2---0---3-|---4---4---4---2-|---2---2---------|-^4---|
D|-----4---5-----2-|---2---2---0---4-|-----4---5-----2-|---2---2---------|-|4---|
A|-2-----------4---|-0---4-----------|-2-----------4---|-0---4-----------|-|2---|
E|-----------------|---------3---2---|-----------------|---------3---2---|------|
   1 + 2 + 3 + 4 +   1 + 2 + 3 + 4 +   1 + 2 + 3 + 4 +   1 + 2 + 3 + 4 +
   Bm      G   A/C#  A       G-5 F#    Bm      G   A/C#  A       G   F#     Bm
 
 
*****************************
| ^
| |  strum in this direction
| |
*****************************

SEE ALSO: Our List Of Guitar Apps That Don't Suck

Latest Downloads That'll help you become a better guitarist

Your First Six Guitar Songs Cover Download Now
guitar fretboard notes print quality Download Now
Blank Guitar Chord Charts print quality Download Now
Guitar Chord Chart Download Now

Nailed It?

Great job! Let others know you're learning REAL music by sharing on social media!

Save This Song!

Enjoying Si Je Perds by Zaz? Bookmark the page to make it easier for you to find again!

Press Ctrl+D to bookmark this page

Zaz Fan?

We hope you enjoyed learning how to play Si Je Perds by Zaz on guitar. Don't stop now! There's loads more songs to learn by at Guvna Guitars!

Comments If you liked this tab or have something to share that'll make playing Si Je Perds better for others, let us all know in the comments below!

Your email address will not be published. Required fields are marked *

Submit Chords

Have a song you know the chords for that you'd like to share with others? Awesome! Submit it by clicking on the button below