Sinner’s Prayer Chords & Lyrics Artist:

Chords (click graphic to learn to play)

A chord C chord D chord Dm chord Em chord F chord G chord
20% Off Guitar Tricks Full Access! when you use this link

How To Play

INTRO
 
e|-------------------------|---------------------------|
B|-------------------------|---------------------------|
G|-------------------------|---------------------------|
D|-------------------------|-------------/4--2-4-2--0--| x2
A|----------2-----------2--|----------2----------------|
E|-0---2h3-----0---2h3-----|-0---2h3-------------------|
 
 
Play every chord one time in the first Verse and Chorus.
 
VERSE 1
Em
   Came down the mountain
D
  Draggin' our love affair
A
  Got on a pretty little number
 
I'm wearing still
Em                           D
   There was a hell of a scene at daddy's feast
A
  Nobody saw it coming, but the little red devil in me
Em                   D
   He has a funny way saying forever too fast
A
  Don't get mad, can't blame a tramp
 
For something he don't have
 
e|-------------------------------|
B|-------------------------------|
G|-------------------------------|
D|-------------------------------|
A|-3--2--0---------------5---3---|
E|----------3--2-----0-----------|
   I get on my knees and beg you
 
 
CHORUS
G
  Hear my sinner's prayer
Dm
   I am what I am
C                                          F
  And I don't wanna break the heart of any other man
    D
But you, but you
G
  Hear my sinner's prayer
Dm
   It's the only one I know
C
  It sure as hell don't rhyme
            F                 D
But it's as good as, good as, good as, good as gold
 
 
e|-------------------------|---------------------------|
B|-------------------------|---------------------------|
G|-------------------------|---------------------------|
D|-------------------------|-------------/4--2-4-2--0--| x2
A|----------2-----------2--|----------2----------------|
E|-0---2h3-----0---2h3-----|-0---2h3-------------------|
 
 
VERSE 2
Em                      D
   I've got a baby sister who looks just like me
A
  She wants nothing more than a man to please
Em
   Maybe she's in too deep
D
  Her love for him ain't cheap
A
  But it breaks just like a knockoff piece from Fulton Street
Em                    D
   The man's got a gift for getting what he wants
A
  He's thirsty when he drinks, gets on a brink, and throws her off
 
e|-------------------------------|
B|-------------------------------|
G|-------------------------------|
D|-------------------------------|
A|-3--2--0---------------5---3---|
E|----------3--2-----0-----------|
   I get on my knees and beg you
 
 
CHORUS
G
  Hear my sinner's prayer
Dm
   I am what I am
C                                          F
  And I don't wanna break the heart of any other man
    D
But you, but you
G
  Hear my sinner's prayer
Dm
   It's the only one I know
C
  It sure as hell don't rhyme
            F                 D
But it's as good as, good as, good as, good as gold
 
 
BRIDGE
C                            D
I can carry you but not your ghosts
C                                D
Wish I had the faith but, I don't know, oh
 
 
CHORUS
G
  Hear my sinner's prayer
Dm
   I am what I am
C                                          F
  And I don't wanna break the heart of any other man
    D
But you, but you
G
  Hear my sinner's prayer
Dm
   It's the only one I know
C
  It sure as hell don't rhyme
            F                 D                G
But it's as good as, good as, good as, good as gold
F                 D                G
Good as, good as, good as, good as gold
F                 D                G
Good as, good as, good as, good as gold
F                 D                G
Good as, good as, good as, good as gold
F                 D                Em
Good as, good as, good as, good as gold
 
 
******************************
 
| h  Hammer on
| /  Slide up into note
 
******************************

SEE ALSO: Our List Of Guitar Apps That Don't Suck

Latest Downloads That'll help you become a better guitarist

Your First Six Guitar Songs Cover Download Now
guitar fretboard notes print quality Download Now
Blank Guitar Chord Charts print quality Download Now
Guitar Chord Chart Download Now

Nailed It?

Great job! Let others know you're learning REAL music by sharing on social media!

Save This Song!

Enjoying Sinner’s Prayer by Lady Gaga? Bookmark the page to make it easier for you to find again!

Press Ctrl+D to bookmark this page

Lady Gaga Fan?

We hope you enjoyed learning how to play Sinner’s Prayer by Lady Gaga on guitar. Don't stop now! There's loads more songs to learn by at Guvna Guitars!

Comments If you liked this tab or have something to share that'll make playing Sinner’s Prayer better for others, let us all know in the comments below!

Your email address will not be published. Required fields are marked *

Submit Chords

Have a song you know the chords for that you'd like to share with others? Awesome! Submit it by clicking on the button below