Sometimes I Cry Chords & Lyrics Artist:

Chords (click graphic to learn to play)

Am7 chord Dm chord F chord Gm chord A7 chord A7sus4 chord G chord
20% Off Guitar Tricks Full Access! when you use this link

How To Play

INTRO
 
Am7  Dm  F Gm  F Gm
Am7  Dm  F Gm
 
VERSE 1
 
 Am7                             Dm            F Gm    F Gm
There are days that I can walk around like I'm alright
   Am7                   Dm          F Gm    F Gm
And I pretend to wear a smile on my face
    Am7                            Dm       F Gm    F Gm
And I could keep the pain from comin' out of my eyes
    A7  A7sus4     A7
But sometimes, sometimes,
 
CHORUS
 
           Am7  Dm  F Gm  F Gm
Sometimes I cry,
Am7 Dm  F Gm
Cry
            Am7 Dm  F Gm  F Gm
Sometimes I cry
A7           A7sus4     Dm
When I can't do nothing else
 
BRIDGE
 
Am7 Dm  F Gm  F Gm
Am7 Dm  F Gm
 
VERSE 2
 
Am7                     Dm      F Gm  F Gm
Everybody keeps tellin' me to move on,
      Am7                     Dm             F Gm  F Gm
Oh but I can't seem to go anywhere without you,
      Am7                    Dm                   F Gm  F Gm
Cause ever since, and every single night you been gone,
A7   A7sus4  A7
Sometimes, sometimes,
 
CHORUS
 
          Am7 Dm  F Gm  F Gm
Sometimes I cry
Am7 Dm  F Gm
Cry
          Am7 Dm  F Gm
Sometimes I cry
A7           A7sus4     Dm
When I can't do nothing else
 
SOLO
 
Am7 Dm  F G  F G x3
A7 A7sus4 A7
 
e|----------------------------------------------------8----------------------|
B|------------------------------------------------6-----8b-6-8-6-8-6-8-6-8---|
G|--------------------------------------------5-7---7------------------------|
D|--------0--3s5-5-5---3p0-3--5b6-3------5s7---------------------------------|
A|---0--3--------------------------------------------------------------------|
E|---------------------------------------------------------------------------|
 
e|---------------------------------------------------------------------------|
B|------------------------13b15---10-8-10h13p10-------6-8-8s9-6-8--8b9-7-8---|
G|--7-7-7-7-7s------------------------------------6s7------------------------|
D|---------------------------------------------------------------------------|
A|---------------------------------------------------------------------------|
E|---------------------------------------------------------------------------|
 
e|---------------------------------------------------------------------------|
B|--7-7-7h8-----10-8-6-------------------------------------------------------|
G|---------------------------------------------------------------------------|
D|---------------------------------------------------------------------------|
A|---------------------------------------------------------------------------|
E|---------------------------------------------------------------------------|
 
CHORUS
 
          Am7 Dm  F Gm  F Gm
Sometimes I cry
Am7 Dm  F G
Cry
          Am7 Dm  F Gm  F Gm
Sometimes I cry
A7
When I can't do nothing else
 

SEE ALSO: Our List Of Guitar Apps That Don't Suck

Latest Downloads That'll help you become a better guitarist

Your First Six Guitar Songs Cover Download Now
guitar fretboard notes print quality Download Now
Blank Guitar Chord Charts print quality Download Now
Guitar Chord Chart Download Now

Nailed It?

Great job! Let others know you're learning REAL music by sharing on social media!

Save This Song!

Enjoying Sometimes I Cry by Chris Stapleton? Bookmark the page to make it easier for you to find again!

Press Ctrl+D to bookmark this page

Chris Stapleton Fan?

We hope you enjoyed learning how to play Sometimes I Cry by Chris Stapleton on guitar. Don't stop now! There's loads more songs to learn by at Guvna Guitars!

Think you know Chris Stapleton? Prove it: Take The Quiz!

Comments If you liked this tab or have something to share that'll make playing Sometimes I Cry better for others, let us all know in the comments below!

Your email address will not be published. Required fields are marked *

Submit Chords

Have a song you know the chords for that you'd like to share with others? Awesome! Submit it by clicking on the button below