Stay Chords & Lyrics Artist:

Chords (click graphic to learn to play)

Fmaj7 chord Cmaj7/G chord Am7 chord C over G chord D7 chord F chord Fm chord
20% Off Guitar Tricks Full Access! when you use this link

How To Play

(Tab)                          
e|-------------------------| 
B|-------------------------| 
G|-------------------------| 
D|------------0h2---0------| 
A|-----0---1------------0--| 
E|-3-----------------------| 
 
VERSE 1
     Fmaj7                  Cmaj7/G              Am7
It's true that all that you know is all that you are
              (Tab)
You said that it's all that you want and more
Fmaj7                      Cmaj7/G
Fuck off and pour another drink
                       Am7
And tell me what you think
                 (Tab)                    Fmaj7
You know that I'm too drunk to talk right now
                                Cmaj7/G
You put your cigarette out on my face
         Am7
So beautiful, please woman
 
REFRAIN
(Tab)                      F
Don't break your back for me
             Fm
I'll put you out of your misery
 
CHORUS
Cmaj7/G
Tell me that it's all okay (tell me that it's all okay)
            Am7
I've been waitin' on this all damn day (waitin' on this all damn day)
D7
Call me in the morn in', tell me how last night went
     F              Fm
I'm here, but don't count on me to...
 
VERSE 2
Fmaj7
Stay a little longer if you convince me
You tell me all the things that you have against me
Cmaj7/G
Every time we make up, the truth is faded
Am7
Everybody's blind when the view's amazin'
(Tab)
Damn, who are we right now?
Fmaj7
Can we have a little conversation?
 
Figure it out with no intoxication
Cmaj7/G
We carry on, what is our motivation?
Am7
We're never wrong, how the hell we gonna make it?
(Tab)
Maybe we're used to this
Fmaj7
Tell me, what are we to do
 
It's like we only play to lose
Cmaj7/G
Chasin' pain with an excuse
Am7
I love that shit and so do you
 
REFRAIN
(Tab)                          F
But don't break your back for me
             Fm
I'll put you out of your misery
 
CHORUS
Cmaj7/G
Tell me that it's all okay (tell me that it's all okay)
Am7
I've been waitin' on this all damn day (waitin' on this all damn day)
D7
Call me in the mornin', tell me how last night went
     F              Fm
I'm here, but don't count on me to stay
 
GUITAR SOLO
e|------------5/12--10-------------------12-10--------------12-10------------------10/12---15\12----15-10/12-|
B|-5/10-----------------13\8-----13\10---------13--8/10-11--------13-10---12/13------------------------------|
G|-----------------------------------------------------------------------------------------------------------|
D|-----------------------------------------------------------------------------------------------------------|
A|-----------------------------------------------------------------------------------------------------------|
E|-----------------------------------------------------------------------------------------------------------|
 
e|-13/15-13--5/8---8\4-4\3-3\1-1\0---------------------------------------------------------------------------|
B|-----------------------------------------------------------------------------------------------------------|
G|-----------------------------------------------------------------------------------------------------------|
D|-----------------------------------------------------------------------------------------------------------|
A|-----------------------------------------------------------------------------------------------------------|
E|-----------------------------------------------------------------------------------------------------------|
 
CHORUS
Cmaj7/G
Tell me that it's all okay (tell me that it's all okay)
Am7
I've been waitin' on this all damn day (waitin' on this all damn day)
D7
Call me in the mornin', tell me how last night went
     F              Fm             Cmaj7/G
I'm here, but don't count on me to stay

SEE ALSO: Our List Of Guitar Apps That Don't Suck

Latest Downloads That'll help you become a better guitarist

Your First Six Guitar Songs Cover Download Now
guitar fretboard notes print quality Download Now
Blank Guitar Chord Charts print quality Download Now
Guitar Chord Chart Download Now

Nailed It?

Great job! Let others know you're learning REAL music by sharing on social media!

Save This Song!

Enjoying Stay by Post Malone? Bookmark the page to make it easier for you to find again!

Press Ctrl+D to bookmark this page

Post Malone Fan?

We hope you enjoyed learning how to play Stay by Post Malone on guitar. Don't stop now! There's loads more songs to learn by at Guvna Guitars!

Comments If you liked this tab or have something to share that'll make playing Stay better for others, let us all know in the comments below!

Your email address will not be published. Required fields are marked *

Submit Chords

Have a song you know the chords for that you'd like to share with others? Awesome! Submit it by clicking on the button below