Studentfylleflaken Chords & Lyrics Artist:

Chords (click graphic to learn to play)

A chord B chord E chord F sharp minor chord Bsus4 chord
20% Off Guitar Tricks Full Access! when you use this link

How To Play

INTRO
En, två, tre
 
e|----------0--0-------------------------------------------------|
B|-0--0--2--------2----0------------------0--2--0--0-------------|
G|--------------------------1----------2-------------------------|
D|-------------------------------2--2----------------------------|
A|-------0-----------------------------0-------------------------|
E|---------------------0---------------------------0-------------|
 
e|---------------------------------------------------------------|
B|---------------------------------------------------------------|
G|-----------------1--------------1--1--1--2--1------------------|
D|----------2--4--------4--2---------------------2----4----------|
A|-2--2--4-----0--------------------------------------2----------|
E|-----------------0-----------------------2---------------------|
 
e|----------0--0--2--4--2--0-------------------------------------|
B|-0--0--2--------------------------------0--2--0--0-------------|
G|----------------------------1--1--1--2-------------------------|
D|---------------------------------------------------------------|
A|-------0-----------------------------0-------------------------|
E|-------------------0-----------------------------0-------------|
 
e|---------------------------------------------------------------|
B|---------------------------------------------------------------|
G|-----------------1--------------1--1--1--2--1------------------|
D|----------2--4--------4--2---------------------2----2----------|
A|-2--2--4-----0-------------------------------------------------|
E|-----------------0-----------------------2----------0----------|
 
[Vers]
    A        E                A          E
Studentfylleflaken, de fyller hela jävla stan
    A        E                 F#m    Bsus4 B
Och pollen i ögonen på alla stupfulla barn
         A         E          A           E
Du får en sång utan kanter, en brasiliansk sång
       A           E            F#m       E
Typ en sån sång där inget annat spelar nån roll
         A       E               A                   E
En mosad groda på vägen precis när solen just ska stiga upp
       A         E              F#m           Bsus4  B
Det är vinden som blåser, det är poker, det är bluff
             A          E              A               E
Det är morgonljuset och daggen, det är bin och vin och gräs
        A          E          F#m         E
Det är snorkallt i vattnet, i torgets fontän
 
 
[Refräng]
 
A     E
       (Åh, wow, wow, yeah)
A     E
       (Åh, wow, wow)
A     E     F#m     Bsus4        B
               (Och alla sjunger med nu)
 
A     E
       (Åh, wow, wow, yeah)
A     E
       (Åh, wow, wow, yeah)
A     E     F#m    E
 
 
 
[Brygga]
 
e|---------------------------------------------------------------|
B|---------------------------------------------------------------|
G|--5~~~~~~-------------------8~~~~~~~~--------------------------|
D|--7b9~~~~-------------------10b12~~~~~-------------------------|
A|---------------------------------------------------------------|
E|---------------------------------------------------------------|
 
N.C
 
[Refräng]
 
A     E
       (Åh, wow, wow, yeah)
A     E
       (Åh, wow, wow)
A     E     F#m     Bsus4        B
               (Och alla sjunger med nu)
 
A     E
       (Wake  up, kids)
A     E
       (You're lost!)
A     E     F#m    E

SEE ALSO: Our List Of Guitar Apps That Don't Suck

Latest Downloads That'll help you become a better guitarist

Your First Six Guitar Songs Cover Download Now
guitar fretboard notes print quality Download Now
Blank Guitar Chord Charts print quality Download Now
Guitar Chord Chart Download Now

Nailed It?

Great job! Let others know you're learning REAL music by sharing on social media!

Save This Song!

Enjoying Studentfylleflaken by Håkan Hellström? Bookmark the page to make it easier for you to find again!

Press Ctrl+D to bookmark this page

Håkan Hellström Fan?

We hope you enjoyed learning how to play Studentfylleflaken by Håkan Hellström on guitar. Don't stop now! There's loads more songs to learn by at Guvna Guitars!

Comments If you liked this tab or have something to share that'll make playing Studentfylleflaken better for others, let us all know in the comments below!

Your email address will not be published. Required fields are marked *

Submit Chords

Have a song you know the chords for that you'd like to share with others? Awesome! Submit it by clicking on the button below