Summer Chords & Lyrics Artist:

Chords (click graphic to learn to play)

Am chord C chord D chord D7 chord G chord
20% Off Guitar Tricks Full Access! when you use this link

How To Play

INTRO
 
 
E|------------------------------------------------------------------------------------------|
A|-----0--1p0-------------------------------------------------------------------------------|
D|--0----------0-----0--2p0----0--2p0------0--2p0-------------------------------------------|
G|----------------2----------0--------------------------------------------------------------|
B|--------------------------------------3---------------------------------------------------|
E|------------------------------------------------------------------------------------------|
 
E|------------------------------------------------------------------------------------------|
A|-----0--1p0-------------------------------------------------------------------------------|
D|--0----------0-----0--2p0------0--2p0------0--2p0-----------------------------------------|
G|----------------2-------------------------------------------------------------------------|
B|---------------------------4-----------2--------------------------------------------------|
E|------------------------------------------------------------------------------------------|
 
Or  you can do this for the intro
 
G  C  D  C
G  C  D7  C
 
 
************************************
 
| p   Pull-off
 
************************************
 
 
 
 
 
      G              C            D            C
It started with a beating of a frozen winter heart
      G              C            D                 C
It started with a feeling  I can make a brand new start
      Am              Am                 C
Gonna go out  gonna shake off all the demons of the day
       Am              Am                   C            D
Gonna sing out  gonna stay out 'cause the rain has gone away
 
 
             C      G   D
It's been a long  hard year
            G               D        C
I've been waiting for the summer to come
      G    D
So I wait here
G                 D           C
Waiting for the light of the sun
            G               D7       G
I've been waiting for the summer to come
 
INTERLUDE
G  C  D  C
 
 
    G                C            D            C
I parted from the feeling  I was never gonna change
         G          C            D              C
And I started to believe in the hope of better days
          Am                  Am
Then the wind changed in the garden
           C
And the darkness went away
         Am        Am      C             D
I could hear you saying  "Don't you be afraid"
 
 
 
             C      G   D
It's been a long  hard year
            G               D        C
I've been waiting for the summer to come
      G    D
So I wait here
G                 D           C
Waiting for the light of the sun
            G               D7       G
I've been waiting for the summer to come
 
BRIDGE
G  C  D  C
G  C  D7  C
 
             C      G   D
It's been a long  hard year
            G               D        C
I've been waiting for the summer to come
      G    D
So I wait here
G                 D           C
Waiting for the light of the sun
            G               D7       G
I've been waiting for the summer to come
 
 
            G   D
It's been hard year
             G              D           C
I've been waiting for the light of the sun
             G              D7       C
I've been waiting for the summer to come

SEE ALSO: Our List Of Guitar Apps That Don't Suck

Latest Downloads That'll help you become a better guitarist

Your First Six Guitar Songs Cover Download Now
guitar fretboard notes print quality Download Now
Blank Guitar Chord Charts print quality Download Now
Guitar Chord Chart Download Now

Nailed It?

Great job! Let others know you're learning REAL music by sharing on social media!

Save This Song!

Enjoying Summer by Benjamin Francis Leftwich? Bookmark the page to make it easier for you to find again!

Press Ctrl+D to bookmark this page

Benjamin Francis Leftwich Fan?

We hope you enjoyed learning how to play Summer by Benjamin Francis Leftwich on guitar. Don't stop now! There's loads more songs to learn by at Guvna Guitars!

Comments If you liked this tab or have something to share that'll make playing Summer better for others, let us all know in the comments below!

Your email address will not be published. Required fields are marked *

Submit Chords

Have a song you know the chords for that you'd like to share with others? Awesome! Submit it by clicking on the button below