Sunday Morning Chords & Lyrics Artist:

Chords (click graphic to learn to play)

Dm7 chord G7 chord C chord
20% Off Guitar Tricks Full Access! when you use this link

How To Play

[Tabs during instrumental]
 
e|------------------------------------------------------------|
B|------------------------------------------------------------|
G|------------------------------------------------------------|
D|------1-2---------------------------------------------------|
A|--3---------2-1-0---2-3-----2-3-----2-3-----------------1-3-|
E|------------------------3-------2-------1----1-3-----3------|
 
 
e|----------------------------------------------------0-------|
B|----------------------------------------------------1---2---|
G|----------------------------------------------------0---2---|
D|------1-2-------------------------------------------2---2---|
A|--3---------2-1-0---2-3-----2-3-----2-3-------------3---4---|
E|------------------------3-------2-------1----1-3------------|
 
 
INTRO
 
Dm7 - G7 - C
Dm7 - G7 - C
 
 
VERSE 1
 
Dm7        G7             C
   Sunday morning rain is falling
Dm7           G7            C
   Steal some covers share some skin
Dm7           G7               C
   Clouds are shrouding us in moments unforgettable
    Dm7               G7             C
You twist to fit the mold that I am in
     Dm7               G7           C
But things just get so crazy living life gets hard to do
            Dm7            G7              C
And I would gladly hit the road get up and go if I knew
     Dm7               G7             C
That someday it would lead me back to you
     Dm7               G7             C
That someday it would lead me back to you
 
 
CHORUS
 
            Dm7 G7 C
That may be all I  need
                   Dm7 G7 C
In darkness she is all I  see
                   Dm7    G7  C
Come and rest your bones with me
                       Dm7
Driving slow on Sunday morning
       G7            C
And I never want to leave
 
 
VERSE 2
 
Dm7         G7               C
   Fingers trace your every outline, oh yay yay
Dm7         G7             C
   Paint a picture with my hands, oh oh
Dm7             G7                 C
   And back and forth we sway like branches in a storm
           Dm7               G7             C
Change the weather still together when it ends
 
 
CHORUS
 
            Dm7 G7 C
That may be all I  need
                   Dm7 G7 C
In darkness she is all I  see
                   Dm7    G7  C
Come and rest your bones with me
                       Dm7
Driving slow on Sunday morning
      G7            C
And I never want to leave
 
 
[Instrumental tabs]
 
e|------------------------------------------------------------|
B|------------------------------------------------------------|
G|------------------------------------------------------------|
D|------1-2---------------------------------------------------|
A|--3---------2-1-0---2-3-----2-3-----2-3-----------------1-3-|
E|------------------------3-------2-------1----1-3-----3------|
 
 
e|----------------------------------------------------0-------|
B|----------------------------------------------------1---2---|
G|----------------------------------------------------0---2---|
D|------1-2-------------------------------------------2---2---|
A|--3---------2-1-0---2-3-----2-3-----2-3-------------3---4---|
E|------------------------3-------2-------1----1-3------------|
 
 
BRIDGE
 
     Dm7               G7           C
But things just get so crazy living life gets hard to do (life gets hard)
       Dm7             G7              C
Sunday morning rain is falling and I'm calling out to you
        Dm7             G7                C
Singin' someday it will bring me back to you, yeah
       Dm7            G7                C
Find a way to bring myself back home to you ... may not know
 
 
CHORUS
 
            Dm7 G7 C
That may be all I  need       (all I need)
                   Dm7 G7 C
In darkness she is all I  see (you are all I see)
                   Dm7    G7  C
Come and rest your bones with me
                       Dm7
Driving slow on Sunday morning
        G7      C
Driving slow... yeah yeah, ah yeah yeah 
 
 
OUTRO
 
Dm7 G7 C
All I  need   (Ah yeah yeah...)
Dm7 G7 C
All I  see    (There's a flower in your hair...)
Dm7   G7   C
Bones with me
 
Dm7     G7     C
(Ad lib and fade)

SEE ALSO: Our List Of Guitar Apps That Don't Suck

Latest Downloads That'll help you become a better guitarist

Your First Six Guitar Songs Cover Download Now
guitar fretboard notes print quality Download Now
Blank Guitar Chord Charts print quality Download Now
Guitar Chord Chart Download Now

Nailed It?

Great job! Let others know you're learning REAL music by sharing on social media!

Save This Song!

Enjoying Sunday Morning by Maroon 5? Bookmark the page to make it easier for you to find again!

Press Ctrl+D to bookmark this page

Maroon 5 Fan?

We hope you enjoyed learning how to play Sunday Morning by Maroon 5 on guitar. Don't stop now! There's loads more songs to learn by at Guvna Guitars!

Comments If you liked this tab or have something to share that'll make playing Sunday Morning better for others, let us all know in the comments below!

Your email address will not be published. Required fields are marked *

Submit Chords

Have a song you know the chords for that you'd like to share with others? Awesome! Submit it by clicking on the button below